Oops, an error
Loading. Please wait.

King Of The Rodeo Tab

version 1
version 1

Whole song

Interactive

Video

108,183 views 72 this week
13 commentsread comments
1 2 3 4 5
x 26
add to favorites
launch autoscroll
font size
0
reset
how to read this tab
guitar tuner
Autoscroll
slow
fast
+/-
esc
set tempo
stop
Help us to improve Ultimate-Guitar.com Take our survey!
×
[Intro]
(Guitar 1)
e|--------------------------|----------------------------|
B|--17--17--17--17--21--17--|--17--17--17--17--21--17----|
G|--18--18--18--18--18--18--|--18--18--18--18--18--18----|
D|--19--19--19--19--19--19--|--19--19--19--19--19--19----|
A|--------------------------|----------------------------|
E|--------------------------|----------------------------|

e|--------------------------|----------------------------|
B|--17--17--17--17--21--17--|--17--17--17--17--21--17----|
G|--18--18--18--18--18--18--|--18--18--18--18--18--18----|
D|--19--19--19--19--19--19--|--19--19--19--19--19--19----|
A|--------------------------|----------------------------|
E|--------------------------|----------------------------|

(Guitar 2)
e|--------------------------------------------------------|
B|--------------------------------------------------------|
G|--6--6--6--6--6--6--6--6s4s6--6--6--6--6--6--6--6b9-----|
D|--------------------------------------------------------|
A|--------------------------------------------------------|
E|--------------------------------------------------------|

e|--------------------------------------------------------|
B|--------------------------------------------------------|
G|--6--6--6--6--6--6--6--6s4s6--6--6--6s4s6--6--6--6------|
D|--------------------------------------------------------|
A|--------------------------------------------------------|
E|--------------------------------------------------------|

[Verse]
(Guitar 1)
e|--------------------------|----------------------------|
B|--17--17--17--17--21--17--|--17--17--17--17--21--17----|
G|--18--18--18--18--18--18--|--18--18--18--18--18--18----|
D|--19--19--19--19--19--19--|--19--19--19--19--19--19----|
A|--------------------------|----------------------------|
E|--------------------------|----------------------------|

e|--------------------------|----------------------------|
B|--17--17--17--17--21--17--|--17--17--17--17--21--17----|
G|--18--18--18--18--18--18--|--18--18--18--18--18--18----|
D|--19--19--19--19--19--19--|--19--19--19--19--19--19----|
A|--------------------------|----------------------------|
E|--------------------------|----------------------------|

(Guitar 2)
e|-------------------------5----|
B|-------------------------5----|
G|------------------------------|
D|------------------------------|
A|------------------------------|
E|--5---0-2-0-2/5---0-2-0-------|
                                                                           
e|-------------------------5----|
B|-------------------------5----|
G|------------------------------|
D|------------------------------|
A|------------------------------|
E|--5---0-2-0-2/5---0-2-0-------|

e|-------------------------5----|
B|-------------------------5----|
G|------------------------------|
D|------------------------------|
A|------------------------------|
E|--5---0-2-0-2/5---0-2-0-------|

e|------------------------------|
B|------------------------------|
G|------------------------------|
D|------------------------------|
A|------------------------------|
E|--5---0-2-0-2/5---0-2-0-2-----|
                                 
[Chorus]               
(Guitar 1)
e|--------------------------|----------------------------|
B|--17--17--17--17--21--17--|--17--17--17--17--21--17----|
G|--18--18--18--18--18--18--|--18--18--18--18--18--18----|
D|--19--19--19--19--19--19--|--19--19--19--19--19--19----|
A|--------------------------|----------------------------|
E|--------------------------|----------------------------|

e|--------------------------|----------------------------|
B|--17--17--17--17--21--17--|--17--17--17--17--21--17----|
G|--18--18--18--18--18--18--|--18--18--18--18--18--18----|
D|--19--19--19--19--19--19--|--19--19--19--19--19--19----|
A|--------------------------|----------------------------|
E|--------------------------|----------------------------|    

(Guitar 2)
   "Me and your cold.........
e|---------------------------------|
B|---------------------------------|
G|---------------------------------|
D|---------------------------------|
A|---11-11-11-11-11-11-11-11-------|
E|---9--9--9--9--9--9--9--9--------|

 "...good times roll let the good times...
e|---------------------------------|
B|---------------------------------|
G|---------------------------------|
D|---------------------------------|
A|---12-12-12-12-12-12-12-12-------|
E|---10-10-10-10-10-10-10-10-------|

 ...roll"
e|------------------------------------------------------|
B|------------------------------------------------------|
G|------------------------------------------------------|
D|--14-14-14-14-14-14-14-14--14-14-14-14-14-14-14-14----|
A|--12-12-12-12-12-12-12-12--12-12-12-12-12-12-12-12----|
E|------------------------------------------------------|

   "Cowgirl king of the rodeo.......
e|---------------------------------|
B|---------------------------------|
G|---------------------------------|
D|---------------------------------|
A|---11-11-11-11-11-11-11-11-------|
E|---9--9--9--9--9--9--9--9--------|

 ...good times roll let the good times...
e|---------------------------------|
B|---------------------------------|
G|---------------------------------|
D|---------------------------------|
A|---12-12-12-12-12-12-12-12-------|
E|---10-10-10-10-10-10-10-10-------|

 ...roll"
e|------------------------------------------------------|
B|------------------------------------------------------|
G|------------------------------------------------------|
D|--14-14-14-14-14-14-14-14--14-14-14-14-14-14-14-14----|
A|--12-12-12-12-12-12-12-12--12-12-12-12-12-12-12-12----|
E|------------------------------------------------------|

[Verse 2] 
(as Caleb sings, Matthew play this)
e|------------------------------------------------5-----|
B|------------------------------------------------5-----|
G|------------------------------------------------------|
D|------------------------------------------------------|
A|------------------------------------------------------|
E|-5---0-2-0-2/5----0-2-0-2/5---0-2-0-2/5---0-2-0-------|

[Chorus 2]
(Guitar 1)
e|--------------------------|----------------------------|
B|--17--17--17--17--21--17--|--17--17--17--17--21--17----|
G|--18--18--18--18--18--18--|--18--18--18--18--18--18----|
D|--19--19--19--19--19--19--|--19--19--19--19--19--19----|
A|--------------------------|----------------------------|
E|--------------------------|----------------------------|

e|--------------------------|----------------------------|
B|--17--17--17--17--21--17--|--17--17--17--17--21--17----|
G|--18--18--18--18--18--18--|--18--18--18--18--18--18----|
D|--19--19--19--19--19--19--|--19--19--19--19--19--19----|
A|--------------------------|----------------------------|
E|--------------------------|----------------------------|    

(Guitar 2)
   "Me and your cold.........
e|---------------------------------|
B|---------------------------------|
G|---------------------------------|
D|---------------------------------|
A|---11-11-11-11-11-11-11-11-------|
E|---9--9--9--9--9--9--9--9--------|

 "...good times roll let the good times...
e|---------------------------------|
B|---------------------------------|
G|---------------------------------|
D|---------------------------------|
A|---12-12-12-12-12-12-12-12-------|
E|---10-10-10-10-10-10-10-10-------|

 ...roll"
e|------------------------------------------------------|
B|------------------------------------------------------|
G|------------------------------------------------------|
D|--14-14-14-14-14-14-14-14--14-14-14-14-14-14-14-14----|
A|--12-12-12-12-12-12-12-12--12-12-12-12-12-12-12-12----|
E|------------------------------------------------------|

   "Cowgirl king of the rodeo.......
e|---------------------------------|
B|---------------------------------|
G|---------------------------------|
D|---------------------------------|
A|---11-11-11-11-11-11-11-11-------|
E|---9--9--9--9--9--9--9--9--------|

 ...good times roll let the good times...
e|---------------------------------|
B|---------------------------------|
G|---------------------------------|
D|---------------------------------|
A|---12-12-12-12-12-12-12-12-------|
E|---10-10-10-10-10-10-10-10-------|

 ...roll"
e|------------------------------------------------------|
B|------------------------------------------------------|
G|------------------------------------------------------|
D|--14-14-14-14-14-14-14-14--14-14-14-14-14-14-14-14----|
A|--12-12-12-12-12-12-12-12--12-12-12-12-12-12-12-12----|
E|------------------------------------------------------|

[Solo]
(Guitar 1)
e|--------------------------|----------------------------|
B|--17--17--17--17--21--17--|--17--17--17--17--21--17----|
G|--18--18--18--18--18--18--|--18--18--18--18--18--18----|
D|--19--19--19--19--19--19--|--19--19--19--19--19--19----|
A|--------------------------|----------------------------|
E|--------------------------|----------------------------|

e|--------------------------|----------------------------|
B|--17--17--17--17--21--17--|--17--17--17--17--21--17----|
G|--18--18--18--18--18--18--|--18--18--18--18--18--18----|
D|--19--19--19--19--19--19--|--19--19--19--19--19--19----|
A|--------------------------|----------------------------|
E|--------------------------|----------------------------|

(Guitar 2)
e|-----------------------------------------------------------------------|
B|-12----12----12----12----12----12----14----14-----12----12-------------|
G|-14b---14r---14b---14r---14b---14r---16b---16r----14b---14r------------|
D|-------------------------------------------------------------11---11---|
A|-----------------------------------------------------------------------|
E|-----------------------------------------------------------------------|

e|---------------------------------------------------------|
B|---------------------------------------------------------|
G|-14-14-14-14-14-14-14-14---16-16-16-16-16-16-16-16-------|
D|---------------------------------------------------------|
A|-12-12-12-12-12-12-12-12---14-14-14-14-14-14-14-14-------|
E|---------------------------------------------------------|

e|---------------------------------------------------------|
B|---------------------------------------------------------|
G|-18-18-18-18-18-18-18-18---21-21-21-21-21-21-21-21-------|
D|---------------------------------------------------------|
A|-16-16-16-16-16-16-16-16---19-19-19-19-19-19-19-19-------|
E|---------------------------------------------------------|


************************************

| b  Bend
| /  Slide up
| r  Release

************************************
Suggest correction
comments
print report bad tab
13 comments total. Showing first comments.
0 reply
specky s+w 10 Apr 07, 2005 12:00 AM

great tab

0 reply
SpidersofZen 10 Feb 13, 2006 09:09 PM

This is easily the most correct tab ive looked at for a song by the Kings of Leon - the Milk and Bucket ones were a little off In my opinion.
If i had written the song I would have had that part that goes from 5th fret on the E string to open then 2 and open again, etc as a simple a string open then the other bit as it makes it conform to a scale, but then you have to reach for the 5 frets on the B and E strings.
Good work and the solo is exactly how its played - i saw them live and its spot on! Well done

0 reply
SpidersofZen 10 Feb 13, 2006 09:19 PM

I csant tell whether the last chord in the chorus indeed does go up to 12 on A string, 14 on D and G strings or goes down to a top bar chord at the 5th fret on the e string - the bass is in the way! :)

guest
You may want to rate the tab now too:
select rating
Wanna post a correction for this tab? Suggest correction