Oops, an error
Loading. Please wait.

King Of The Rodeo Bass Tab

version 3
version 3

Whole song

Interactive

5,834 views 1 this week
7 commentsread comments
1 2 3 4 5
x 3
add to favorites
launch autoscroll
font size
0
reset
guitar tuner
Autoscroll
slow
fast
+/-
esc
set tempo
stop
Help us to improve Ultimate-Guitar.com Take our survey!
×
----------------------------------------------------------------------------
			     KING OF THE RODEO - Kings Of Leon
----------------------------------------------------------------------------

Tabbed By : BlocPartyFreak
e-mail: madfender@gmail.com

Tuning: Standard.

The other tabs are close, but not correct. I watched a lot of live vids to get it 
 Huge thanks to mike-flea.

Verse 1 (00.00-00:39)

G|----------------------------------------------------------------------|
D|-13\-----11-----11---------11-----11----------------------------------|
A|-----9-9----9-9----9-9-9-9----9-9----9-9--0(x15)----------------------| x6
E|----------------------------------------------------------------------|
   ^^^ 5 times after the 1st without the 13\

Chorus 1 (00:39-00:51)
G|----------------------------------------------------------------------|
D|------------------------------------14-14---14-14---14-14---14-14-----|
A|-4-4-4-4-4-4-4-4-5-5-5-5-5-5-5-5--12------12------12------12----------| x2
E|----------------------------------------------------------------------|

Verse 2 (00:51-1:24)
G|----------------------------------------------------------------------|
D|-----11-----11---------11-----11--------------------------------------|
A|-9-9----9-9----9-9-9-9----9-9----9-9--0(x15)--------------------------| x5
E|----------------------------------------------------------------------|

Chorus 2 (1:23 - 1:35)
G|----------------------------------------------------------------------|
D|------------------------------------14-14---14-14---14-14---14-14-----|
A|-4-4-4-4-4-4-4-4-5-5-5-5-5-5-5-5--12------12------12------12----------| x2
E|----------------------------------------------------------------------|

Verse 3 (Solo) (1:35-1:48)
G|----------------------------------------------------------------------|
D|-----11-----11---------11-----11--------------------------------------|
A|-9-9----9-9----9-9-9-9----9-9----9-9--0(x15)--------------------------| x2
E|----------------------------------------------------------------------|

Chorus 3 (Outro) (1:48-2:25)
G|----------------------------------------------------------------------|
D|------------------------------------14-14---14-14---14-14---14-14-----|
A|-4-4-4-4-4-4-4-4-5-5-5-5-5-5-5-5--12------12------12------12------12~~| x4
E|----------------------------------------------------------------------|

Tabbed by BlocPartyFreak

Any comments and corrections welcome.
Suggest correction
Give kudos to tab author, rate the tab!
1 2 3 4 5
comments
print report bad tab
7 comments total. Showing first comments.
+1 reply
Thunderbird_Fan 83 Jul 15, 2009 09:04 AM

Perfect Tab!

5 Stars!

One Question: For the verse when you play the 15 A's do you play a quater note for the last A??

0 reply
BlocPartyFreak 186 Jul 17, 2009 04:18 AM

Yes, because then you slide straight back into the 9's and 11's.

+1 reply
Thunderbird_Fan 83 Jul 21, 2009 03:16 AM

ok cheers

guest
You may want to rate the tab now too:
select rating
Wanna post a correction for this tab? Suggest correction