Oops, an error
Loading. Please wait.

King Of The Rodeo Tab

version 3
version 3

Whole song

Interactive

Video

2,386 views 6 this week
no commentswrite comment
1 2 3 4 5
please rate
add to favorites
launch autoscroll
font size
0
reset
how to read this tab
guitar tuner
Autoscroll
slow
fast
+/-
esc
set tempo
stop
Help us to improve Ultimate-Guitar.com Take our survey!
×
Author
Difficulty
intermediate
--------------------------------------------------------------------------
                             King Of The Rodeo - Kings Of Leon
--------------------------------------------------------------------------
Tabbed by: BlocPartyFreak
Email: madfender@gmail.com

Tuning:Standard

b  -  Bend
sb -  Slow Bend
() -  Bracketed numbers are the note you bend up to
h  -  Hammer On
p  -  Pull Off
r  -  Return
/  -  Slide Up
\  -  Slide Down


Rhythm (Caleb)
(Throughout whole song)
e |--0--0--0--0-16-16--0--0--0--0--0--0-16-16--0--0--|
B |-17-17-17-17-17-17-17-17-17-17-17-17-17-17-17-17--|
G |-16-16-16-16-16-16-16-16-16-16-16-16-16-16-16-16--|
D |--------------------------------------------------|
A |--------------------------------------------------|
E |--------------------------------------------------|

Intro
Lead (Matthew)

e|---------------|-------|---------------------------|
B|---------------|-------|---------------------------|
G|-6-6-6-6-6-6-6-|-6/4/6-|-6-6-6-6-6-6-6-6-6-b(9)r6--|
D|---------------|-------|---------------------------|
A|---------------|-------|---------------------------|
E|---------------|-------|---------------------------|

e|---------------|-------|------|-----------------|
B|---------------|-------|------|-----------------|
G|-6-6-6-6-6-6-6-|-6/4/6-|-6--6-|-6/4/6--6-6-6----|
D|---------------|-------|------|-----------------|
A|---------------|-------|------|-----------------|
E|---------------|-------|------|-----------------|

Verse
0:16

e|-------------------5-|-------------------5-|
B|-------------------5-|-------------------5-|
G|---------------------|---------------------|
D|---------------------|---------------------|
A|---------------------|---------------------|
E|-5-0-2-0-2/5-0-2-0---|-5-0-2-0-2/5-0-2-0---|

e|-------------------5-|---------------------|
B|-------------------5-|---------------------|
G|---------------------|---------------------|
D|---------------------|---------------------|
A|---------------------|---------------------|
E|-5-0-2-0-2/5-0-2-0---|-5-0-2-0-2/5-0-2-0/5-|

Chorus
0:38
The chorus can be done both ways. 

This one Matt plays live:

e|--------------------------------------------------------------------|
B|--------------------------------------------------------------------|
G|--------------------------------------------------------------------|
D|-----------------------------------14141414141414141414141414141414-| x2
A|-1010101010101010-1212121212121212-12121212121212121212121212121212-|
E|-9-9-9-9-9-9-9-9--1010101010101010----------------------------------|

Or this, which I prefer to play:
e|-------------------------------------------------------------------|
B|-------------------------------------------------------------------|
G|-----------------------------------9-9-9-9-9-9-9-9-9-9-9-9-9-9-9-9-|
D|-6-6-6-6-6-6-6-6--7-7-7-7-7-7-7-7--7-7-7-7-7-7-7-7-7-7-7-7-7-7-7-7-| x2
A|-4-4-4-4-4-4-4-4--5-5-5-5-5-5-5-5--0-0-0-0-0-0-0-0-0-0-0-0-0-0-0-0-|
E|-------------------------------------------------------------------|

Verse
0:51

e|---------------|-------|---------------------------|
B|---------------|-------|---------------------------|
G|-6-6-6-6-6-6-6-|-6/4/6-|-6-6-6-6-6-6-6-6-6-b(9)----|
D|---------------|-------|---------------------------|
A|---------------|-------|---------------------------|
E|---------------|-------|---------------------------|

0:57
e|-----------------------|----------------5-|
B|-----------------------|----------------5-|
G|-----------------------|------------------| x3
D|-----------------------|------------------|
A|-----------------------|------------------|
E|-5-0-2-0-2/5-0-2-0-2/5-|-0-2-0-2/5-0-2-0--|

e|-----------------------|--------------------|
B|-----------------------|--------------------|
G|-----------------------|--------------------| 
D|-----------------------|--------------------|
A|-----------------------|--------------------|
E|-5-0-2-0-2/5-0-2-0-2/5-|-0-2-0-2/5-0-2-0-2/-|

Chorus
1:23

e|-------------------------------------------------------------------|
B|-------------------------------------------------------------------|
G|-----------------------------------9-9-9-9-9-9-9-9-9-9-9-9-9-9-9-9-|
D|-6-6-6-6-6-6-6-6--7-7-7-7-7-7-7-7--7-7-7-7-7-7-7-7-7-7-7-7-7-7-7-7-| x2
A|-4-4-4-4-4-4-4-4--5-5-5-5-5-5-5-5--0-0-0-0-0-0-0-0-0-0-0-0-0-0-0-0-|
E|-------------------------------------------------------------------|

Solo
"Good time to roll on!"
1:35
(How Matt plays it in the video)

e |-----------------------------------------|
B |-12---------12-------12---------12-------|
G |-14-b(16)--(16)-r14--14-b(16)--(16)-r14--|
D |-----------------------------------------|
A |-----------------------------------------|
E |-----------------------------------------|

e |-----------------------------------------------------------|
B |-12---------12-------14---------14-------12---------12-----|
G |-14-b(16)--(16)-r14--16-b(18)--(18)-r16--14-b(16)--(16)-r14|
D |-----------------------------------------------------------|
A |-----------------------------------------------------------|
E |-----------------------------------------------------------|

e|------------------------------------------------|
B|------------------------------------------------|
G|---------22222222--44444444--66666666--99999999-|
D|-11-11---00000000--00000000--00000000--00000000-|
A|------------------------------------------------|
E|------------------------------------------------|

"Good time to roll on"
1:48
Ending

e|-------------------------------------------------------------------|
B|-------------------------------------------------------------------|
G|-----------------------------------9-9-9-9-9-9-9-9-9-9-9-9-9-9-9-9-|
D|-6-6-6-6-6-6-6-6--7-7-7-7-7-7-7-7--7-7-7-7-7-7-7-7-7-7-7-7-7-7-7-7-| x4
A|-4-4-4-4-4-4-4-4--5-5-5-5-5-5-5-5--0-0-0-0-0-0-0-0-0-0-0-0-0-0-0-0-|
E|-------------------------------------------------------------------|

Last time:
e|---|
B|---|
G|-9~|
D|-7~| Let ring
A|-0~|
E|---|

Caleb ends with his rhythm bit.

Hope that helped! It's the way I play it anyhow..

Comments and Corrections welcome!
BlocPartyFreak
Suggest correction
Give kudos to tab author, rate the tab!
1 2 3 4 5
comments
print report bad tab
guest
You may want to rate the tab now too:
select rating
Please do not post tabs as comments. Select "correction" instead!