Oops, an error
Loading. Please wait.

Knocked Up Tab

version 1
version 1

Intro

Whole song

Interactive

27,582 views 12 this week
3 commentsread comments
1 2 3 4 5
accurate
x 5
add to favorites
launch autoscroll
font size
0
reset
how to read this tab
guitar tuner
Autoscroll
slow
fast
+/-
esc
set tempo
stop
Help us to improve Ultimate-Guitar.com Take our survey!
×
Author
This is the first track off their new album 'Because of The Times'

e -----------------------|
B -----------------------|
G -----------------------|
D -----------------------| a few times then:
A -----2--2-2------4--4--|
E --0----------0---------|

e -----------------------|
B -----------------------|
G -----------------------|
D -----------------------| 
A -----2--2-2------4--4--|
E --4----------4---------|

natural harmonics:

e --12---7---------------|
B ----------7~-----------|
G -----------------------|
D -----------------------|
A -----------------------|
E -----------------------|

A. Taylor
Suggest correction
comments
print report bad tab
3 comments total.
0 reply
dave_mullen 249 wrote on February 23 2007, 05:41 am

What a song!!!

+1 reply
dave_mullen 249 wrote on February 23 2007, 05:43 am

Band : Kings Of Leon
Song : On Call
Album : Because of the Times
Tabbed : Dave Mullen



This will be Kings of Leon's first single
when it eventually comes out.

Here's the Bass line

*Bass*

G|-----------------------------------|
D|-----------------------------------|
A|-----------------------------------|
E|-3-3-3-3-3-0-2-3-7-7-7-7-7-0-0-2---|

G|-----------------------------------|
D|-----------------------------------|
A|-----------------------------------|
E|-3-3-3-3-3-0-2-3-7-7-7-7-7-0-0-2---|

+1 reply
CubeShindig 15 wrote on April 4 2007, 11:49 am

you can play the high pitched lead bit with naturasl harmonics, sounds good;

e ---12-----19--------|
B ---------------19~--|
G --------------------|
D --------------------|
A --------------------|
E --------------------|

Add some whammy bar and you're sweet!

guest
You may want to rate the tab now too:
select rating
Wanna post a correction for this tab? Suggest correction