Oops, an error
Loading. Please wait.

Knocked Up Tab

version 1
version 1

Whole song

Interactive

50,453 views 63 this week
6 commentsread comments
1 2 3 4 5
accurate
x 5
add to favorites
launch autoscroll
font size
0
reset
how to read this tab
guitar tuner
Autoscroll
slow
fast
+/-
esc
set tempo
stop
Help us to improve Ultimate-Guitar.com Take our survey!
×
Author
Kings of Leon
Because of the Times
Knocked up

Bass Intro
G|------------------------------------|
D|--9-9—X4-------------13—13--X4------|
A|-7-7------/slide/--11--11-----------|
E|------------------------------------|

Guitar 1 (Lots of Reverb)

e|-12---7------|  All played in harmonics on these frets
B|--------7----|
G|-------------|
D|-------------|
A|-------------|
E|-------------|

Alternative method

e|------19-----|
B|-17------19--|
G|-------------|
D|-------------|
A|-------------|
E|-------------|

Guitar 2

e|---------------------------------------------------------------------|
B|---------------------------------------------------------------------|
G|---------------------------------------------------------------------|
D|---------------------------------------------------------------------|
A|----2-2--2-2-2-----4--4-4-4-4--X2-----2-2--2-2-2-----4--4-4-4-4--X2--|
E|-0--------------0------------------4--------------4------------------|


Approaching the break, Guitar 1 holds the second note

Break

Guitar 1
e|---------------------------------------------|
B|---------------------------------------------|
G|---------------------------------------------|
D|-9--9-9-9-9-9-9-9--X2---9--9-9-9-9-9-9-9--X2-|
A|-7--7-7-7-7-7-7-7-------9--9-9-9-9-9-9-9-----|
E|-0--0-0-0-0-0-0-0-------7--7-7-7-7-7-7-7-----|

Guitar 2

e|--------------------------------------------------------|
B|--------------------------------------------------------|
G|-13--13-13-13-13-13-13-13-13----------------------------|
D|-x---x--x--x--x--x--x--x--x---X2---9--9-9-9-9-9-9-9--X2-|
A|-11--11-11-11-11-11-11-11-11-------9--9-9-9-9-9-9-9-----|
E|-0---0--0--0--0--0--0--0--0--------7--7-7-7-7-7-7-7-----|

That’s all I managed to work out. 
I’m still not comfortable with definition of the break
Feel free to email me with any suggestions. Thanks!

benmrhall@gmail.com
Suggest correction
What's this?
You can suggest a correction to this tab. Community and Mods will review your correction and vote to approve or reject it.
comments
print report bad tab
6 comments total. Showing first comments.
0 reply
Jakeman0 379 wrote on February 28 2007, 04:31 pm

The intro is right not too sure on the break though. 5 stars for intro though. GW.

0 reply
benmrhall 58 wrote on March 5 2007, 03:04 pm

I tried to write on the tab that I wasn't too comfortable with the break, but the page broke it off.

Yeah the break isn't quite right but pretty close with two guitar parts.

0 reply
antroolez 1,983 wrote on March 19 2007, 11:14 am

Ragoo Bass

G|-----------------------------------------------------------|
D|-----------------------------------------------------------|
A|-9------------------------9-----9/10/9---------------------|
E|---10---5----7--9--7/5------10-----------10----5-----------|

guest
You may want to rate the tab now too:
select rating
Please do not post tabs as comments. Select "correction" instead!