Oops, an error
Loading. Please wait.

Knocked Up Bass Tab

version 3
version 3

Whole song

Interactive

26,987 views 30 this week
7 commentsread comments
1 2 3 4 5
excellent!
x 21
add to favorites
launch autoscroll
font size
0
reset
guitar tuner
Tab Pro tools
  • play this tab
  • loop segment
  • change instrument
  • show fretboard
  • metronome
×
Best way to learn
"Knocked Up"
Autoscroll
slow
fast
+/-
esc
set tempo
stop
Contributor
KINGS OF LEON
BECAUSE OF THE TIMES
KNOCKED UP

Tabbed by Andy Thompson (guess_who_angreu@hotmail.com)


This is a relatively simple yet fun song to play. There are 2 main riffs:


Verse Riff

G|--9--9--9--9|--9--9--9--9|----13--13--13--13|---13--13--13--13|
D|------------|------------|------------------|-----------------|
A|-7--7--7--7-|-7--7--7--7-|-/11--11--11--11--|-11--11--11--11--|
E|------------|------------|------------------|-----------------|


Verse Riff (Variation)

G|--9--9--9--9|--9--9--9--9|----13--13--13--13|---13--13---14--14|
D|------------|------------|------------------|------------------|
A|-7--7--7--7-|-7--7--7--7-|-/11--11--11--11--|-11--11--/12--12--|
E|------------|------------|------------------|------------------|


Chorus Riff

G|-----------|-----------|-----------|--------------|
D|-----------|-----------|-----------|-------2------|
A|-4---2-----|-4---2-----|-------2-4-|---------4(~)-|
E|---4---4-0-|---4---4-0-|-0-2-4-----|-0-2-4--------|

That's all there is to it. The order is pretty straight forward, just listen out for the 
on the verse riff.

KEY
/ = Slide
~ = Vibrato
comments
print report bad tab
7 comments total. Showing first comments. show 1 bad comment
0 reply
dave_mullen wrote on January 12 2008, 09:27 am

Come on now, are we sure its not
this?

G|------------|------------|------------------|-----------------|
D|--9--9--9--9|--9--9--9--9|----13--13--13--
13|---13--13--13--13|
A|-7--7--7--7-|-7--7--7--7-|-/11--11--11--11--|-11--11--11--11--|
E|------------|------------|--
----------------|-----------------|

0 reply
barb3rman wrote on April 24 2008, 05:15 pm

It sounds like it changes in a few spots, but I definitely hear the octave part being played (one in the tab)

I want to post or [tab]
guest
You may want to rate the tab now too:
select rating
Please do not post tabs as comments. Select "correction" instead!