Oops, an error
Loading. Please wait.

Manhattan Bass Tab

version 1
version 1

Whole song

Interactive

14,376 views 3 this week
7 commentsread comments
1 2 3 4 5
x 3
add to favorites
launch autoscroll
font size
0
reset
guitar tuner
Autoscroll
slow
fast
+/-
esc
set tempo
stop
Help us to improve Ultimate-Guitar.com Take our survey!
×
Author
|--------|
D|--------|
A|7-7-----|
E|----5-5-| x2

G|----------16--14--13-------------------------------|
D|---------------------------------------------------|
A|--7------------------------------------------------|
E|---------------------------------------------------| x8

G|------16--16|
D|181818--18--|
A|------------|
E|------------| x8

G|----------16--14--13-------------------------------|
D|---------------------------------------------------|
A|--7------------------------------------------------|
E|---------------------------------------------------| x8

G|---------|
D|---------|
A|7-7---4-2|
E|----5----| x2

G|------16--16|
D|181818--18--|
A|------------|
E|------------| x8

G|----------16--14--13-------------------------------|
D|---------------------------------------------------|
A|--7------------------------------------------------|
E|---------------------------------------------------| x8

G|---------------|
D|--9--9h11-9h11-|
A|11-11----------|
E|--------------9| x 2

G|----------9h11-|
D|--9--9h11------|
A|11-11----------|
E|--------------9|

G|---------------|
D|--9--9h11-9h11-|
A|11-11----------|
E|--------------9|

G|---------|
D|---------|
A|7-7---4-2|
E|----5----| x2
Suggest correction
Give kudos to tab author, rate the tab!
1 2 3 4 5
comments
print report bad tab
7 comments total. Showing first comments.
0 reply
antroolez 920 Jun 20, 2008 10:32 AM

dont think this is right....apparently its not even called manhattan

heres what i reckon hes playin

G|---------------------------------------------------|
D|----------16--14--13-------------------------------|
A|--7------------------------------------------------|
E|---------------------------------------------------|

0 reply
bubbletoy 30 Jun 21, 2008 12:42 PM

Manhattan's what it was called on their setlist.

0 reply
Epic Noob 190 Jun 21, 2008 12:49 PM

Not bad for a first tab!

However! I reckon it goes like:

G|--------|
D|--------|
A|---9-7-6|
E|0-------|

guest
You may want to rate the tab now too:
select rating
Wanna post a correction for this tab? Suggest correction