Oops, an error
Loading. Please wait.

Manhattan Tab

version 1
version 1

Whole song

Interactive

35,056 views 12 this week
4 commentsread comments
1 2 3 4 5
please rate
add to favorites
launch autoscroll
font size
0
reset
how to read this tab
guitar tuner
Autoscroll
slow
fast
+/-
esc
set tempo
stop
Help us to improve Ultimate-Guitar.com Take our survey!
×
Difficulty
novice
-------------------------------------------------------------------------------
                        manhattan - kings of leon
-------------------------------------------------------------------------------
Tabbed by:kingsofshaun
Email:prawnmcdonalds@hotmail.com

Tuning:standard

e|-----------------------------------------------------------------------------|
B|-----------------------------------------------------------------------------|
G|-----------------------------------------------------------------------------|
D|--77-/-9--9--9-----------9-9--/--10- 10- 10----------------------------------|
A|--99-/-11-11--11---x2----11-11-/-12- 12- 12---x2-----------------------------|repeat
E|--00-/--0--0--0----------0--0--/--0---0---0----------------------------------|

this is the rythm guitar, they basically use the same tabbing as arizona but in a different order.

e|--7-----9---------------------------7--------9-------------------------------|
B|----------------7------9------5--------------------9-------7-------5---------|
G|-----------------------------------------------------------------------------|
D|-----------------------------------------------------------------------------|
A|-----------------------------------------------------------------------------|
E|-----------------------------------------------------------------------------|
this little bit is also played halfway through the song i think, but i dont know who plays it

| /  slide up
| \  slide down
| h  hammer-on
| p  pull-off
| ~  vibrato
| +  harmonic
| x  Mute note
===============================================================================
Suggest correction
Give kudos to tab author, rate the tab!
1 2 3 4 5
comments
print report bad tab
4 comments total. Showing first comments.
0 reply
athertpa 63 wrote on August 31 2008, 05:36 am

think the last note on the vers is 0-12-11

D - 11
A - 12
E - 0

0 reply
antroolez 920 wrote on September 26 2008, 06:41 am

The bit in the middle/outro is

e|--------12--14--14b16r14--12-|-11--------------------------|
B|----14-----------------------|-----------------------------|
G|-----------------------------|-----------------------------|
D|-----------------------------|-----------------------------|
A|-----------------------------|-----------------------------|
E|-----------------------------|-----------------------------|


e|--------12--14--14b16r14--12-|-----------------------------|
B|----14-----------------------|-----------------------------|
G|-----------------------------|-13--------------------------|
D|-----------------------------|-----------------------------|
A|-----------------------------|-----------------------------|
E|-----------------------------|-----------------------------|

credit me if ya use this pwease

xx

0 reply
antroolez 920 wrote on September 26 2008, 06:41 am

The bit in the middle/outro is

e|--------12--14--14b16r14--12-|-11--------------------------|
B|----14-----------------------|-----------------------------|
G|-----------------------------|-----------------------------|
D|-----------------------------|-----------------------------|
A|-----------------------------|-----------------------------|
E|-----------------------------|-----------------------------|


e|--------12--14--14b16r14--12-|-----------------------------|
B|----14-----------------------|-----------------------------|
G|-----------------------------|-13--------------------------|
D|-----------------------------|-----------------------------|
A|-----------------------------|-----------------------------|
E|-----------------------------|-----------------------------|

credit me if ya use this pwease

xx

guest
You may want to rate the tab now too:
select rating
Wanna post a correction for this tab? Suggest correction