Oops, an error
Loading. Please wait.

Manhattan Bass Tab

version 2
version 2

Whole song

Interactive

11,840 views 1 this week
9 commentsread comments
1 2 3 4 5
x 5
add to favorites
launch autoscroll
font size
0
reset
guitar tuner
Autoscroll
slow
fast
+/-
esc
set tempo
stop
Help us to improve Ultimate-Guitar.com Take our survey!
×
This is my first tab and I think it's accurate from what has been heard of the song so far
G|--------|
D|--------|
A|7-7-----|
E|----5-5-| x2

G|----------16--14--13-------------------------------|
D|---------------------------------------------------|
A|--7------------------------------------------------|
E|---------------------------------------------------| x8

G|------16--16|
D|181818--18--|
A|------------|
E|------------| x8

G|----------16--14--13-------------------------------|
D|---------------------------------------------------|
A|--7------------------------------------------------|
E|---------------------------------------------------| x8

G|---------|
D|---------|
A|7-7---4-2|
E|----5----| x2

G|------16--16|
D|181818--18--|
A|------------|
E|------------| x8

G|----------16--14--13-------------------------------|
D|---------------------------------------------------|
A|--7------------------------------------------------|
E|---------------------------------------------------| x8

G|---------------|
D|--9--9h11-9h11-|
A|11-11----------|
E|--------------9| x 2

G|----------9h11-|
D|--9--9h11------|
A|11-11----------|
E|--------------9|

G|---------------|
D|--9--9h11-9h11-|
A|11-11----------|
E|--------------9|

G|---------|
D|---------|
A|7-7---4-2|
E|----5----| x2

And that's all thats been heard of Manhattan so far. Sounds great :)
Suggest correction
comments
print report bad tab
9 comments total. Showing first comments.
+1 reply
antroolez 920 Jun 30, 2008 10:59 PM

do i get any credit for the little chorus bit lol

xx

+1 reply
Conlon 92 Jul 01, 2008 10:57 AM

Yeah, sorry for not giving you some credit, I just watched one of the videos and noticed Jared was playing it on a different string.

For the complete song play
G|------16--16|
D|181818--18--|
A|------------|
E|------------| x8

as the intro and also the outro but for the outro play it 16 times :)

-1 reply
Xren 550 Aug 16, 2008 10:38 AM

Great tab :)
I do think it should be like this though (minor change)


G|----------15/16--14--13------|
D|-----------------------------|
A|--7--------------------------|
E|-----------------------------|

Sounds like it imo ;)

guest
You may want to rate the tab now too:
select rating
Wanna post a correction for this tab? Suggest correction