Oops, an error
Loading. Please wait.

Manhattan Bass Tab

version 3
version 3

Whole song

Interactive

19,869 views 33 this week
4 commentsread comments
1 2 3 4 5
excellent!
x 21
add to favorites
launch autoscroll
font size
0
reset
guitar tuner
Tab Pro tools
  • play this tab
  • loop segment
  • change instrument
  • show fretboard
  • metronome
×
Best way to learn
"Manhattan"
Autoscroll
slow
fast
+/-
esc
set tempo
stop
band/kings of leon
song/manhattan
album/only by the night
year/2008

this is the best song on the whole album, none of the other tabs were right so i made 
one. enjoy.

intro/2nd verse/3rd verse/outro

-----16----16--16----16----16--16----16----16--16----16----16--16----|
-1818--1818--18--1818--1818--18--1818--1818--18--1818--1818--18------|
---------------------------------------------------------------------|  x2
---------------------------------------------------------------------|

verse

----------------|
----------------|
-7~-7~----------|  x2
-------5~-5~----|

chorus

-----16-14-13---16-14-13----16-14-13---16-14-13----|
---------------------------------------------------|
-/7/---------\7/-----------------------------------|    x2
-------------------------\5/--------\5/------------|

2nd verse

chorus

pre verse
------------------|
------------------|   x2
-7~-7~------------|
-------5~-9-7-----|

3rd verse

chorus

bridge

-----------------|      ----------9h11------|
---9--9h11-9h11--|      ---9--9h11----------|
-11-11-----------|  x2  -11-11--------------|  x2
---------------9-|      --------------9-----|

pre outro

------------------|
------------------|   x2
-7~-7~------------|
-------5~-9-7-----|

outro

enjoy this tab. awesome song by an awesome band.
comments
print report bad tab
4 comments total. Showing first comments.
0 reply
storecreditonly wrote on December 15 2008, 05:17 pm

Great tab. this is more detailed than the others and the corrections
are right the other tabs missed out parts. (Y)

0 reply
Terps Bass wrote on February 13 2009, 08:48 am

Bridge Correction:

E----------------------9/
A-0h11-14----------------
D--------11-9h11-9h11-9--
G------------------------

0 reply
InsomniaJunkie wrote on May 17 2010, 03:39 pm

@Terps Bass

is that for the first or second part of the bridge?

I want to post or [tab]
guest
You may want to rate the tab now too:
select rating
Please do not post tabs as comments. Select "correction" instead!