Oops, an error
Loading. Please wait.

Manhattan Tab

version 3
version 3

Whole song

Interactive

18,106 views 9 this week
no commentswrite comment
1 2 3 4 5
accurate
x 5
add to favorites
launch autoscroll
font size
0
reset
how to read this tab
guitar tuner
Autoscroll
slow
fast
+/-
esc
set tempo
stop
Help us to improve Ultimate-Guitar.com Take our survey!
×
Author
Difficulty
Tabbers playing skills
intermediate
intermediate +
-------------------------------------------------------------------------------
                         Manhattan - Kings of Leon      
-------------------------------------------------------------------------------
Tabbed by:Grantburgh
Email:Grantburgh@hotmail.com

Tuning: Standard

Intro

Guitar 1 - Caleb

e|---------------------------------------------------------------------------|
B|---------------------------------------------------------------------------|
G|---------------------------------------------------------------------------|
D|--------9---9--9--9--9---------9--9--9--9--9---------11-11-11-11-11--------|
A|---9--9/11-11-11-11-11---9--9/11-11-11-11-11--11--11/12-12-12-12-12--------|
E|--------0---0--0--0--0---------0--0--0--0--0----------0--0--0--0--0--------|

e|----------------------------|
B|----------------------------|   Caleb plays this throughout the song except
G|----------------------------|   for during the bridge and ending.
D|-----11-11-11-11-11---------|
A|--11/12-12-12-12-12---------|
E|------0--0--0--0--0---------|

Guitar 2 - Matthew

With distortion and lots of reverb/delay.

e|------------9--------------9-------------|
B|---9---12------10--9--12-------10--------|   Gently ease ur volume knob open after
G|-----------------------------------------|   picking each of these notes to achieve 
D|-----------------------------------------|   a similiar sound as on the track if u dont
A|-----------------------------------------|   have an effects pedal to do it for u ^_^
E|-----------------------------------------|

e|---12-----------------12--------------12--------------12-------------------|
B|-------10---9--------------10--9--------------10-----------10--9-----------|
G|---------------------------------------------------------------------------|
D|---------------------------------------------------------------------------|
A|---------------------------------------------------------------------------|
E|---------------------------------------------------------------------------|

e|---777--4--0---777--4--0---777--4--5---12-12-12----------|
B|-------------------------------------------------9-10-9--|
G|---------------------------------------------------------| x2
D|---------------------------------------------------------|
A|---------------------------------------------------------|
E|---------------------------------------------------------|

e|---12-----------------12--------------12--------------12-------------------|
B|-------10---9--------------10--9--------------10-----------10--9-----------|
G|---------------------------------------------------------------------------|
D|---------------------------------------------------------------------------|
A|---------------------------------------------------------------------------|
E|---------------------------------------------------------------------------|

e|---777--4--0---777--4--0---777--4--5---12-12-12----------|
B|-------------------------------------------------9-10----|
G|---------------------------------------------------------| x2
D|---------------------------------------------------------|
A|---------------------------------------------------------|
E|---------------------------------------------------------|

e|--------12--14-14b16r14--12--11--------12--14---14b16r14 12----------------|
B|----14-----------------------------14--------------------------------------|
G|-----------------------------------------------------------13--------------| x2
D|---------------------------------------------------------------------------|
A|---------------------------------------------------------------------------|
E|---------------------------------------------------------------------------|

e|---12-----------------|
B|-------10--9----------|
G|----------------------|
D|----------------------|
A|----------------------|
E|----------------------|

e|-----------14--------------------------------------------------------------|
B|------17-------14--12------------------------------------------------------|
G|--13-----------------------------------------------------------------------|
D|---------------------------------------------------------------------------|
A|---------------------------------------------------------------------------|
E|---------------------------------------------------------------------------|

Rythm Guitar (Caleb) at end

e|----------------------------------------|
B|----------------------------------------| play this until the song finishes
G|---------6------------------------------|
D|------9----------6----------------------|
A|---7---------9--------------------------|
E|----------------------------------------|




| /  slide up
| \  slide down
| h  hammer-on
| p  pull-off
| ~  vibrato
| +  harmonic
| x  Mute note
===============================================================================
Suggest correction
comments
print report bad tab
guest
You may want to rate the tab now too:
select rating
Please do not post tabs as comments. Select "correction" instead!