Oops, an error
Loading. Please wait.

Manhattan Bass Tab

version 4
version 4

Whole song

Interactive

11,888 views 3 this week
no commentswrite comment
1 2 3 4 5
excellent!
x 6
add to favorites
launch autoscroll
font size
0
reset
guitar tuner
Tab Pro tools
  • play this tab
  • loop segment
  • change instrument
  • show fretboard
  • metronome
Autoscroll
slow
fast
+/-
esc
set tempo
stop
Contributor
-------------------------------------------------------------------------------
			     MANHATTAN - KINGS OF LEON
-------------------------------------------------------------------------------

Tabbed By : Joel B.

Tuning:Standard

Great song by Kings of Leon.
I think the other tabs were wrong or there were missing parts,
but I think this one is correct. (:
If there are any mistakes or anything else, please comment.


Intro:         
                  
G|------16-----16-----------16-------16----------|
D|---18-----18-----18----18-------18------18-----|
A|-----------------------------------------------|
E|-0------0------0-----0-------0--------0--------|
                                                     x2 
G|------16-----16-----------16-------16----------|
D|---18-----18-----18----18-------18------18-----|
A|-0------0------0-----0-------0--------0--------|
E|-----------------------------------------------|

Verse:

G|------------------------------------------|
D|------------------------------------------|
A|-7----7-------------/7----7---------------|
E|-----------5----5---------------5----5----|

Chorus:

G|----------161413-----------161413----------161413-----------161413--|
D|--------------------------------------------------------------------|
A|-----7/14-------------7/14---------0--7/14---------0--7/14----------| x2
E|--0----------------0------------------------------------------------|

Verse:

G|/16-----16-----16------------16-----16---------|
D|-----18-----18-----18-----18-----18-----18-----|
A|-----------------------------------------------|
E|----------0------0------0------0------0--------|
                                                      
G|------16-----16-----------16-------16----------|
D|---18-----18-----18----18-------18------18-----|
A|-0------0------0-----0-------0--------0--------|
E|-----------------------------------------------|

G|------16-----16------------16-----16-----------|
D|---18-----18-----18-----18-----18-----18-------|
A|-----------------------------------------------|
E|-0-------0------0------0------0------0---------|
                                                      
G|------16-----16-----------16-------16----------|
D|---18-----18-----18----18-------18------18\----|
A|-0------0------0-----0-------0--------0--------|
E|-----------------------------------------------|

Chorus:

G|----------161413-----------161413----------161413-----------161413--|
D|--------------------------------------------------------------------|
A|-----7/14-------------7/14---------0--7/14---------0--7/14----------| x2
E|--0----------------0------------------------------------------------|

Pre Verse:

G|--------------------------------------------|
D|--------------------------------------------|
A|-7----7-----------------7----7--------------|
E|-----------5--/9---7--------------5--/9---7-|

Verse:

G|/16-----16-----16------------16-----16---------|
D|-----18-----18-----18-----18-----18-----18-----|
A|-----------------------------------------------|
E|----------0------0------0------0------0--------|
                                                      
G|------16-----16-----------16-------16----------|
D|---18-----18-----18----18-------18------18-----|
A|-0------0------0-----0-------0--------0--------|
E|-----------------------------------------------|

G|------16-----16------------16-----16-----------|
D|---18-----18-----18-----18-----18-----18-------|
A|-----------------------------------------------|
E|-0-------0------0------0------0------0---------|
                                                      
G|------16-----16-----------16-------16----------|
D|---18-----18-----18----18-------18------18\----|
A|-0------0------0-----0-------0--------0--------|
E|-----------------------------------------------|

Chorus:

G|----------161413-----------161413----------161413-----------161413--|
D|--------------------------------------------------------------------|
A|-----7/14-------------7/14---------0--7/14---------0--7-14----------| 
E|--0----------------0------------------------------------------------|

G|----------161413-----------161413----------161413-----------16------|
D|--------------------------------------------------------------------|
A|-----7/14-------------7/14---------0--7/14---------0--7/14----------| 
E|--0----------------0------------------------------------------------|

Bridge:

G|--------------------------------|
D|-----9----9h11-9h11-------------|
A|--11---11-----------------------| x2
E|--------------------9-\---------|

G|---------------9h11p9-----------|
D|-----9----9h11------------------|
A|--11---11-----------------------| 
E|---------------------9-\--------|

G|--------------------------------|
D|-----9----9h11-9h11-------------|
A|--11---11-----------------6-----| 
E|--------------------9-----------|


Pre Verse:

G|--------------------------------------------|
D|--------------------------------------------|
A|-7----7-----------------7----7--------------|
E|-----------5--/9---7--------------5--/9---7-|

Verse:

Play until the End
G|/16-----16-----16------------16-----16---------|
D|-----18-----18-----18-----18-----18-----18-----|
A|-----------------------------------------------|
E|----------0------0------0------0------0--------|
                                                      
G|------16-----16-----------16-------16----------|
D|---18-----18-----18----18-------18------18-----|
A|-0------0------0-----0-------0--------0--------|
E|-----------------------------------------------|

G|------16-----16------------16-----16-----------|
D|---18-----18-----18-----18-----18-----18-------|
A|-----------------------------------------------|
E|-0-------0------0------0------0------0---------|
                                                      
G|------16-----16-----------16-------16----------|
D|---18-----18-----18----18-------18------18-----|
A|-0------0------0-----0-------0--------0--------|
E|-----------------------------------------------|

questions? 
e-mail: skaterknoedel@hotmail.de

| /  slide up
| \  slide down
| h  hammer-on
| p  pull-off
| ~  vibrato
| +  harmonic
| x  Mute note
=============================================================================
comments
print report bad tab
I want to post or [tab]
guest
You may want to rate the tab now too:
select rating
Please do not post tabs as comments. Select "correction" instead!