Oops, an error
Loading. Please wait.

Manhattan Tab

version 4
version 4

Whole song

Interactive

92,964 views 60 this week
6 commentsread comments
1 2 3 4 5
x 20
add to favorites
launch autoscroll
font size
0
reset
how to read this tab
guitar tuner
×
Best way to learn
"Manhattan"
Autoscroll
slow
fast
+/-
esc
set tempo
stop
Author
Artist: Kings of Leon
Song: Manhattan

[Intro]
Lead
e|-----------------------|
B|--9----12----14----10--|
G|-----------------------| X2
D|-----------------------|
A|-----------------------|
E|-----------------------|

Rhythm
e|------------------------------------------------------------|
B|------------------------------------------------------------|
G|------------------------------------------------------------| X2
D|------------------------------------------------------------|
A|--9-9-9/11-11--9-9-9/11-11--11-11-11/12-12--11-11-11/12-12--|
E|------------------------------------------------------------|


[Verse]
Lead, in the 3rd verse only play first bit
e|--12-12-----------------12-12-----------12-12------12-12---------|
B|--------10-9------------------10-9------------12---------10---9--|
G|-----------------------------------------------------------------|
D|-----------------------------------------------------------------|
A|-----------------------------------------------------------------|
E|-----------------------------------------------------------------|


[Chorus]
Lead
e|------------------------------------12-12-------|
B|--12-12-9----12-12-9----12-12-9-10--------9-10--|
G|----------9----------9--------------------------| X2
D|------------------------------------------------|
A|------------------------------------------------|
E|------------------------------------------------|

Rhythm
e|------------------------------------------------------------|
B|------------------------------------------------------------|
G|------------------------------------------------------------| X2
D|------------------------------------------------------------|
A|--9-9-9/11-11--9-9-9/11-11--11-11-11/12-12--11-11-11/12-12--|
E|------------------------------------------------------------|
 
[Bridge 1]
Lead
e|-----12-14-14b-12-11~~~~---12-14-14b-12---------|
B|--14--------------------14----------------------|
G|----------------------------------------13~~~~--| X2
D|------------------------------------------------|
A|------------------------------------------------|
E|------------------------------------------------|

Rhythm
e|---------------------------------------|
B|---------------------------------------|
G|---------------------------------------| X4
D|------9--11--------------9--11---------|
A|--11---------9-9-11---11--------11--9--|
E|---------------------------------------|
 
[Bridge 2]
Lead
e|-----12-14-14b-12-11~~~~---12-14-14b-12---------|
B|--14--------------------14----------------------|
G|----------------------------------------13~~~~--| X2
D|------------------------------------------------|
A|------------------------------------------------|
E|------------------------------------------------|

Rhythm
e|--------------------------------------------------|
B|--------------------------------------------------|
G|--------------------88----------------------------| X2
D|--14-14-14-14-14-14-88----14-14-14-14-14-14-66----|
A|--14-14-14-14-14-14-66----14-14-14-14-14-14-66----|
E|--12-12-12-12-12-12-------12-12-12-12-12-12-44----|
 
[Outro]
Lead
e|-----12--14---------|
B|-------------14-12--|
G|--13----------------| X8
D|--------------------|
A|--------------------|
E|--------------------|


[Bridge]
Lead
e|-----12-14-14b-12-11~~~~---12-14-14b-12---------|
B|--14--------------------14----------------------|
G|----------------------------------------13~~~~--| X2
D|------------------------------------------------|
A|------------------------------------------------|
E|------------------------------------------------|

Rhythm
(play first first bridge the whole time)
e|---------------------------------------|
B|---------------------------------------|
G|---------------------------------------| X4
D|------9--11--------------9--11---------|
A|--11---------9-9-11---11--------11--9--|
E|---------------------------------------|


Order:
[Intro]
[Verse]
[Chorus]
[Verse]
[Chorus]
[1st Bridge]
[Verse]
[Chorus]
[2nd Bridge]
[Outro]

************************************

| /  Slide up
| b  Bend
| ~  Vibrato

************************************
Suggest correction
comments
print report bad tab
6 comments total. Showing first comments.
+1 reply
Qatwar 206 Jan 20, 2009 06:27 AM

What you've got here is pretty much accurate, great tab mate, just one thing, in the second verse you can here Caleb playing a little cascade which I believe

E|------------------------|
B|---0---0--------0-----0-|
G|--1---1--(x2)--2----2---|
D|-2---2--------2---2-----|
A|------------------------|
E|------------------------|

Other than that its brilliant work, well done

0 reply
JB-Boy 114 Jan 20, 2009 02:56 PM

thnks Qawtar, Ive known of tht little bit tht Caleb plays for ages but when ever i see a live version he doesn't play it, Jared plays it on the bass really high up the neck, but it works on the guitar fine aswell i guess, thnks

0 reply
Compy01 10 Sep 02, 2009 07:44 AM

Good tab man!

guest
You may want to rate the tab now too:
select rating
Wanna post a correction for this tab? Suggest correction