Oops, an error
Loading. Please wait.

Mcfearless Tab

version 1
version 1

Whole song

Interactive

33,223 views 21 this week
9 commentsread comments
1 2 3 4 5
accurate
x 7
add to favorites
launch autoscroll
font size
0
reset
how to read this tab
guitar tuner
Autoscroll
slow
fast
+/-
esc
set tempo
stop
Help us to improve Ultimate-Guitar.com Take our survey!
×
Author
Band : Kings Of Leon
Song : McFearless
Album : Because of the Times
Tabbed : Dave Mullen



**INTRO/ VERSE**

*Bass*

(Bass starts the song and continues the
 same underneath the lead guitar untill
the chorus)

G|---------7-7-7-7---------7-7-7-7----|
D|------------------------------------|
A|-9-9-9-9---------9-9-9-9------------|
E|------------------------------------|


G|---------7-7-7-7---------7-7-7-7----|
D|-9-9-9-9---------9-9-9-9------------|
A|------------------------------------|
E|------------------------------------|



*Lead Guitar*

(these notes are played twice as fast as the bass
in the song, and have an effect that goes with it
like a cry baby pedal or something? i dont know?)


e|-----------------------------------------------------|
B|-10-10-10-10-10-10-10-10-/-14-14-14-14-14-14-14-14-\-|
G|-----------------------------------------------------|
D|-----------------------------------------------------|
A|-----------------------------------------------------|
E|-----------------------------------------------------|

e|-----------------------------------------------------|
B|-10-10-10-10-10-10-10-10-/-12-12-12-12-12-12-12-12-\-|
G|-----------------------------------------------------|
D|-----------------------------------------------------|
A|-----------------------------------------------------|
E|-----------------------------------------------------|



**CHORUS**

(These are the chords of the chorus, but the lead plays
higher notes and the rhythm plays a cool rhythm all the way
through the chorus with one chord)

*Lead*
(these chords but not played here)
e|---------------------------------------------|
B|---------------------------------------------|
G|-7--------11--------12-----------------------|
D|-7- x 16 -11- x 16 -12-x 32 -----------------|  x 2
A|-5--------9---------10-----------------------|
E|---------------------------------------------|
   D        F#        G

*Rhythm*
e|----------------|
B|----------------|
G|-18-------------|
D|-19-------------|
A|-x--------------|
E|-17-------------|


I have tabbed this song out on Guitar pro too which
clears up all the thing i was saying about the chorus!

Cheers for looking!!
Mullen.
Suggest correction
What's this?
You can suggest a correction to this tab. Community and Mods will review your correction and vote to approve or reject it.
comments
print report bad tab
9 comments total. Showing first comments.
0 reply
dave_mullen 348 wrote on February 23 2007, 05:43 am

Band : Kings Of Leon
Song : On Call
Album : Because of the Times
Tabbed : Dave Mullen



This will be Kings of Leon's first single
when it eventually comes out.

Here's the Bass line

*Bass*

G|-----------------------------------|
D|-----------------------------------|
A|-----------------------------------|
E|-3-3-3-3-3-0-2-3-7-7-7-7-7-0-0-2---|

G|-----------------------------------|
D|-----------------------------------|
A|-----------------------------------|
E|-3-3-3-3-3-0-2-3-7-7-7-7-7-0-0-2---|

0 reply
antroolez 1,984 wrote on February 23 2007, 09:36 am

how do you know this will be their first single?

isnt it on call?

they should definately release black thumbnail

0 reply
antroolez 1,984 wrote on February 23 2007, 09:42 am

o rite soz misread tht...:)

guest
You may want to rate the tab now too:
select rating
Please do not post tabs as comments. Select "correction" instead!