Oops, an error
Loading. Please wait.

Mcfearless Bass Tab

version 2
version 2

Whole song

Interactive

5,358 views 1 this week
1 commentread comment
1 2 3 4 5
x 3
add to favorites
launch autoscroll
font size
0
reset
guitar tuner
Autoscroll
slow
fast
+/-
esc
set tempo
stop
Help us to improve Ultimate-Guitar.com Take our survey!
×
Author
Kings Of Leon - Mcfearless

Main Riff - Verse

Some Distortion used in the verse      

G|---------7-7-7-7---------7-7-7-7-|  
D|---------------------------------|  
A|-9-9-9-9---------9-9-9-9---------| 
E|---------------------------------| 

G|---------7-7-7-7----------7-7-7-7|
D|-9-9-9-9---------9-9-9-9---------|
A|---------------------------------|
E|---------------------------------|

Chorus

G|------------------------------------------------------------------------------------|
D|------------------------------------------------------------------------------------|
A|-5555555555555555-9999999999999999-10101010101010101010101010101010-2222222222222222|
E|------------------------------------------------------------------------------------|

Suggest correction
Give kudos to tab author, rate the tab!
1 2 3 4 5
comments
print report bad tab
1 comment total.
0 reply
RaWk!! 10 Jul 22, 2007 12:27 PM

pretty good tab

guest
You may want to rate the tab now too:
select rating
Wanna post a correction for this tab? Suggest correction