Oops, an error
Loading. Please wait.

Mcfearless Bass Tab

version 3
version 3

Whole song

Interactive

12,579 views 12 this week
2 commentsread comments
1 2 3 4 5
excellent!
x 5
add to favorites
launch autoscroll
font size
0
reset
guitar tuner
Tab Pro tools
  • play this tab
  • loop segment
  • change instrument
  • show fretboard
  • metronome
×
Best way to learn
"Mcfearless"
Autoscroll
slow
fast
+/-
esc
set tempo
stop
Contributor
-------------------------------------------------------------------------------
			     McFearless - Kings of Leon
-------------------------------------------------------------------------------

Tabbed By :  Sol
e-mail: solcoker@hotmail.co.uk

Tuning: Standard

I've added  much more detail into this tab because none of the other tabs have

Enjoy  :)

Intro and main riff

G|---------7-7-7-7---------7-7-7-7----|
D|------------------------------------|
A|-9-9-9-9---------9-9-9-9------------|
E|------------------------------------|

G|---------7-7-7-7----------7-7-7-7------|
D|-9-9-9-9---------9-9-9-9---------------|
A|---------------------------------------|
E|---------------------------------------|   x8

On the 5th time:

G|---------7-7-7-7---------7-7-7-7------|
D|--------------------------------------|
A|-9-9-9-9---------9-9-9-9--------------|
E|--------------------------------------|

G|---------7-7-7-7----------7-7-7-h9----|
D|-9-9-9-9---------9-9-9-9--------------|
A|--------------------------------------|
E|--------------------------------------|

Chorus

G|---------------------------------------------------------------------------------------------------|
D|---------------------------------------------------------------------------------------------------|
A|--5555555555555555---------------------------------------------------------------2222222222222222--|
E|--------------------------------22222222222222222--3333333333333333--------------------------------|

G|---------------------------------------------------------------------------------------------------|
D|---------------------------------------------------------------------------------------------------|
A|--5555555555555555---------------------------------------------------------------2222222222222222--|
E|--------------------------------22222222222222222--3333333333333333--------------------------------|

Main Riff

G|---------7-7-7-7---------7-7-7-7-|
D|---------------------------------|
A|-9-9-9-9---------9-9-9-9---------|
E|---------------------------------|

G|---------7-7-7-7----------7-7-7-7|
D|-9-9-9-9---------9-9-9-9---------|
A|---------------------------------|
E|---------------------------------|   x4

On the 2nd time:

G|---------7-7-7-7---------7-7-7-7---|
D|-----------------------------------|
A|-9-9-9-9---------9-9-9-9-----------|
E|-----------------------------------|

G|---------7-7-7-7----------7-7-7-h9-|
D|-9-9-9-9---------9-9-9-9-----------|
A|-----------------------------------|
E|-----------------------------------|

Chorus

G|---------------------------------------------------------------------------------------------------|
D|---------------------------------------------------------------------------------------------------|
A|--5555555555555555---------------------------------------------------------------2222222222222222--|
E|--------------------------------22222222222222222--3333333333333333--------------------------------|

G|---------------------------------------------------------------------|
D|---------------------------------------------------------------------|
A|--5555555555555555---------------------------------------------------|
E|--------------------------------22222222222222222--3333333333333333--|

----------------------------------------|
----------------------------------------|
22222222-/14-14-14-14-14-14-14-14-14----|
----------------------------------------|

G|----------------------------------------------|
D|--12-12-12-12-12-12-12-12-12------------------|
A| ---------------------------------------------|
E|----------------------------------------------|

G|---------------------------------------------------------------------------------------------------|
D|---------------------------------------------------------------------------------------------------|
A|--5555555555555555---------------------------------------------------------------2222222222222222--|
E|--------------------------------22222222222222222--3333333333333333--------------------------------|

G|------------------------------------------7--------------------7-----------------------
D|---------------------------------4444-----44---7--4444----4-7-4-5555555555555555-------
A|--5555555555555555---------------------------------------------------------------------
E|---------------------------------------------------------------------------------------

-------------------------|
-------------------------|
-------2222222222222222--|
-------------------------|

Outro

G|--------------------------------------------------------------------/777-666-444----------------|
D|---------------------------------------------------------------------------------------777-5-4--|
A|--555555555555555555555555555555555555----------------------------------5 (Let ring)------------|
E|------------------------------------------------------------------------------------------------|

| /  slide up
| \  slide down
| h  hammer-on
| p  pull-off
| ~  vibrato
| +  harmonic
| x  Mute note
===============================================================================
comments
print report bad tab
2 comments total.
+1 reply
SleepyHollow wrote on January 18 2008, 09:22 am

tab is great except in the chorus it actually goes to 4 on D then to 5 on D instead of 2 and 3 on the E . you wrote that
for the last chorus (bar the lil arpeggio).

0 reply
Cal! wrote on October 17 2013, 06:50 pm

I know that correction by sleepyhollow was made almost 6 years ago haha, but hes right.

I want to post or [tab]
guest
You may want to rate the tab now too:
select rating
Please do not post tabs as comments. Select "correction" instead!