Oops, an error
Loading. Please wait.

Mi Amigo Bass Tab

2,882 views 9 this week
no commentswrite comment
1 2 3 4 5
please rate
add to favorites
launch autoscroll
font size
0
reset
guitar tuner
Autoscroll
slow
fast
+/-
esc
set tempo
stop
Help us to improve Ultimate-Guitar.com Take our survey!
×
Author
Difficulty
novice
Mi Amigo - Kings Of Leon
Come Around Sundown (2010)

Fun and easy song...

Intro:
G|----------------|
D|----------------|
A|--5~------------|
E|----------------|

Verse/Guitar Solo(s):
G|--------------------------------------------------------|
D|--------------------------------------------------------|
A|--------------------------------------------------------|
E|----3---3-3---3---3-3---3---3-3---3--3-3/---------------|

G|--------------------------------------------------------|
D|--------------------------------------------------------|
A|--------------------------------------------------------|
E|----10---10-10---10---10-10---10---10-10---10---10-10---|        X3


Chorus:
G|------------------------------------------------------|
D|------------------------------------------------------|
A|------------------------------------------------------|
E|--5~---5-5~----3~--333333333333-----------------------|

Repeat these to the song, it should come easily...
Intro is the slow guitar part.
Verse is sliding back and forth between G and D.
The Chorus is holding an A and then down to a G.
Suggest correction
Give kudos to tab author, rate the tab!
1 2 3 4 5
comments
print report bad tab
guest
You may want to rate the tab now too:
select rating
Wanna post a correction for this tab? Suggest correction