Oops, an error
Loading. Please wait.

Milk Tab

version 3
version 3

Interactive

93,915 views 39 this week
7 commentsread comments
1 2 3 4 5
x 20
add to favorites
launch autoscroll
font size
0
reset
how to read this tab
guitar tuner
Autoscroll
slow
fast
+/-
esc
set tempo
stop
Help us to improve Ultimate-Guitar.com Take our survey!
×
Author
kings of leon
"milk"
"aha shake heartbreak"

...tabbed by sheraton
...geat song..and this tab is perfect..and these are the same exactly
...the same chords like the kings play.....enjoy it^^

verse

caleb(matthew doesn`t play in the verse)

e--------------------------------------------|
b--------------------------------------------|
g--------------------------------------------|   repeat until the chorus
d--------------------------------------------|
a---10--10--10--10--10--10--9--9--9--9--9--9-|
E-7---7---7---9---9---9---5--5--5--5--5--5---|

chorus (play the whole chorus 2 times)

caleb

e-----
b-----
g----- repeat 8x
d--5--
a--5--
E--3--

e-----
b-----
g----- repeat 8x
d--7--
a--7--
E--5--

e------|
b------|
g------| repeat 16 x
d--12--|
a--12--|
E--10--|

matthew

e-----
b-----
g--4-- repeat 8x
d--4--
a--2--
E-----

e-----
b-----
g--6-- repeat 8x
d--6--
a--4--
E-----

e-----
b-----
g--7-- repeat 16x
d--7--
a--5--
E-----

bridge

caleb (matthew doesn`t play)

e----------------|
b----------------|
g----------------|
d----------------|
a----10-9---10-9-|
E---7------7-----|


riff 1

matthew (caleb doesn`t play while matthew plays this beatiful riff)

e-------------------------------|
b-------------------------------|
g-------------------------------|
d------0---2----4--4--2--0----0-|
a-0--2---2------------------2---|
E-------------------------------|

e-----------------------------------|
b-----------------------------------|
g-----------------------------------|
d------0---2----4--4--2--0----0s2s4-|
a-0--2---2------------------2-------|
E-----------------------------------|


verse  caleb  (first play just 2 times)

then.....

riff 2

matthew (caleb doesn`t play)

e-----------------------------|
b-----------------------------|
g--x-7-x-4-x-7--4--7--9-------|
d-----------------------------|
a-----------------------------|
E-----------------------------|

e------------------------------|
b------------------------------|
g--x-7-x-4-x-7--4--7--11-------|
d------------------------------|
a------------------------------|
E------------------------------|

verse

chorus

bridge

riff 3

matthew (caleb doesn`t play , repeat until the end....)

e-----------------------------|
b-----------------------------|
g--x-7-x-4-x-7--4--7--9-------|
d-----------------------------|
a-----------------------------|
E-----------------------------|

e------------------------------|
b------------------------------|
g--x-7-x-4-x-7--4--7--11-------|
d------------------------------|
a------------------------------|
E------------------------------|

e------------------------------|
b------------------------------|
g--x-7-x-4-x-7--4-4--7---------|
d------------------------------|
a------------------------------|
E------------------------------|

e------------------------------|
b------------------------------|
g--x-7-x-4-x-7--4-4--2---------|
d------------------------------|
a------------------------------|
E------------------------------|


and that`s it.....
...100% correct.....


legend:

s = slide
x = pull


for questions and comments please send me an email to:
riviera6@hotmail.de

good luck....
...and have fun^^

KOL rule!!!!!!!!!!
Suggest correction
comments
print report bad tab
7 comments total. Showing first comments.
0 reply
hard to explain 30 Jul 26, 2007 08:29 AM

nice it is perfect... but you can play the last riff like this aswel (its how i play it anyway)

e------------------------------|
b--0-3-0-3-0-3-0-3--5----------|
g------------------------------|
d------------------------------|
a------------------------------|
E------------------------------|

e------------------------------|
b--0-3-0-3-0-3-0-3--7----------|
g------------------------------|
d------------------------------|
a------------------------------|
E------------------------------|

e------------------------------|
b--0-3-0-3-0-3-0-3-------------| X2
g-------------------2----------|
d------------------------------|
a------------------------------|
E------------------------------|


Im prety sure thats how they play it aswel

+1 reply
hard to explain 30 Jul 26, 2007 08:33 AM

wait just played that a few more times, im wrong..... lol

+2 reply
Tom Cahill 10 Dec 14, 2007 05:44 PM

i don't care if it's gay if you are in fact a guy. but i love you for tabing this. such a kick ass sweet song. good job.

guest
You may want to rate the tab now too:
select rating
Wanna post a correction for this tab? Suggest correction