Oops, an error
Loading. Please wait.

Milk Tab

version 4
version 4

Interactive

21,822 views 39 this week
no commentswrite comment
1 2 3 4 5
x 3
add to favorites
launch autoscroll
font size
0
reset
how to read this tab
guitar tuner
Autoscroll
slow
fast
+/-
esc
set tempo
stop
Help us to improve Ultimate-Guitar.com Take our survey!
×
Author
[Intro and Verse]
e|-------------------------------------------|
B|-------------------------------------------|
G|-------------------------------------------|
D|-------------------------------------------|
A|--10-10-10----10-10-10----9-9-9----9-9-9---|
e|-7--7--7--7--9--9--9--9--5-5-5-5--5-5-5-5--|

[Chorus]
e|---------------------------------------------------------------------------------|
B|---------------------------------------------------------------------------------|
G|---------------------------------------------------------------------------------|
D|---------------------------------------------------------------------------------|
A|---------------------------------------------------------------------------------|
e|-7-7-7-7-7-7-7-7-9-9-9-9-9-9-9-9-10-10-10-10-10-10-10-10-10-10-10-10-10-10-10-10-|

e|------------------------------------------------|
B|------------------------------------------------|
G|------------------------------------------------|
D|------------------------------------------------|
A|------------------------------------9----10--9--|
e|-7-7-7-7-7-7-7-7-9-9-9-9-9-9-9-9-5-----7---7----|

e|----------------------------|
B|----------------------------|
G|----------------------------|
D|----------------------------| (x2)
A|-----5--7---9--9-7-5--5-----|
e|-5-7--7-------------7-------|

[Verse]
e|-------------------------------------------|
B|-------------------------------------------|
G|-------------------------------------------|
D|-------------------------------------------| (x4)
A|--10-10-10----10-10-10----9-9-9----9-9-9---|
e|-7--7--7--7--9--9--9--9--5-5-5-5--5-5-5-5--|

[Chorus]
e|---------------------------------------------------------------------------------|
B|---------------------------------------------------------------------------------|
G|---------------------------------------------------------------------------------|
D|---------------------------------------------------------------------------------|(x3)
A|---------------------------------------------------------------------------------|
e|-7-7-7-7-7-7-7-7-9-9-9-9-9-9-9-9-10-10-10-10-10-10-10-10-10-10-10-10-10-10-10-10-|

e|------------------------------------------------|
B|------------------------------------------------|
G|------------------------------------------------|
D|------------------------------------------------|
A|------------------------------------9----10--9--|
e|-7-7-7-7-7-7-7-7-9-9-9-9-9-9-9-9-5-----7---7----|

[Solo]
e|------------------------------------------------------------------------------|
B|------------------------------------------------------------------------------|
G|-x-7-x--x-7-x---/9---x-7-x--x-7-x---/11---x-7-x--x-7-x---7---x-7-x--x-7-x-----|
D|-------9------9------------9------9-------------9------9----------9------9-7--|
A|------------------------------------------------------------------------------|
e|------------------------------------------------------------------------------|


************************************

| x  Dead note
| /  Slide up

************************************
Suggest correction
Give kudos to tab author, rate the tab!
1 2 3 4 5
comments
print report bad tab
guest
You may want to rate the tab now too:
select rating
Wanna post a correction for this tab? Suggest correction