Oops, an error
Loading. Please wait.

Milk tab

version 6
version 6

Interactive

2,394 views 27 this week
no commentswrite comment
1 2 3 4 5
x 4
add to favorites
×
Save as Personal and add changes to this tab that will be seen only by you. Learn more ›
×
You can save this tab as Personal to edit and correct it or add notes. All changes will be seen only by you. Learn more »
launch autoscroll
font size
0
reset
how to read this tab
guitar tuner
backing track
0:00
0:00
edit
Autoscroll
slow
fast
+/-
esc
set tempo
stop
Author
Difficulty
Tabbed By: yulizavala22
Kings Of Leon
Aha Shake Heartbreak
Milk

This is one of my favorite songs by kings of leon and I decided to tab it with all the parts.

This is the only thing that Caleb plays and it is played to the end of the song

e|--------------------------------------------------------|
B|--------------------------------------------------------|
G|--------------------------------------------------------|
D|--------------------------------------------------------|
A|---10--10--10--10--10--10--10--10-----------------------|
E|(7)---7---7---7--(9)---9---9---9----(9)-----------------|

e|-----------------------------------|
B|-----------------------------------|
G|-----------------------------------|
D|-----------------------------------|
A|--9--9--9--9--9--9--9--9-----------|
E|-5--5--5--5--5--5--5--5---(5)------|
  Notes in (parentheses) are played with emphasis if you listen closely

At (1:30) the bass comes in

e|-----------------------------------|
B|-----------------------------------|
G|-----------------------------------|
D|-----------------------------------|
A|--2-2-2-2-4-4-4-4-5-5-5-5-5-5-5-5--|
E|-----------------------------------|

e|------------------------|
B|------------------------|
G|------------------------|
D|------------------------|
A|--2-2-2-2-4-4-4-4-0~~~--|
E|------------------------|


Before the second part of the bass comes in, Caleb plays this

e|------------|
B|------------|
G|------------|
D|------------|
A|--9--10--9--|
E|-7--7---7---|

Then the bass

e|---------------------------|
B|---------------------------|
G|---------------------------|
D|-----0---2---4-4-2-0---0---| x2
A|-0h2---2-------------2-----|
E|---------------------------|

There is one thing that I would like to add, when I was watching their live performance
at the Glastonbury 2008, Jared improvised and made the bass part sound better. The
second time he does this bass part he adds this cool little thing, its not in the 
original recording but I just decided to tab it.

He plays this once

e|---------------------------|
B|---------------------------|
G|---------------------------|
D|-----0---2---4-4-2-0---0---|
A|-0h2---2-------------2-----|
E|---------------------------|

Then this

e|------------------------------|
B|------------------------------|
G|------------------------------|
D|-----0---2---4-4-2-0h2s4--4br-|
A|-0h2---2----------------------|
E|------------------------------|

After that Caleb continues his part, then at (2:16) Jared does the fist part of his riff
until (3:00) and at the same time Matthew sneaks in this little riff once

e|----------------------------------------------|
B|----------------------------------------------|
G|--7-x-4-x-7-x-4--7s9-----7-x-4-x-7-x-4--7s11~-|
D|----------------------------------------------|
A|----------------------------------------------|
E|----------------------------------------------|

Then at (2:30) Matthew does this until (3:00) as well

e|-----      e|-----      e|-----|
B|-----      B|-----      B|-----|
G|-----      G|-----      G|-----|
D|----- x8   D|----- x8   D|-----| x16
A|--2--      A|--4--      A|--9--|
E|--3--      E|--5--      E|--10-|

Then at (3:02) Matthew ends with a solo and stops until Caleb starts humming

e|---------------------------------------------|
B|---------------------------------------------|
G|--7-x-4-x-7-x-4--7s9----7-x-4-x-7-x-4--7s11~-|
D|---------------------------------------------|
A|---------------------------------------------|
E|---------------------------------------------|

e|-------------------------------------------|
B|-------------------------------------------|
G|--7-x-4-x-7-x-4--7-----7-x-4-x-7-x-4--2~~~-|
D|-------------------------------------------|
A|-------------------------------------------|
E|-------------------------------------------|

            
            
Suggest correction
Creating personal tab
Creating personal tab
You can edit any tab online and save it as your Personal.

You can edit, replace or remove any tab part or add personal notes – all changes will be seen only by you.

Personal tabs can be accessed anytime from any device, even offline.
Learn more »
comments
print report bad tab
guest
You may want to rate the tab now too:
select rating
Wanna post a correction for this tab? Suggest correction