Oops, an error
Loading. Please wait.

Mollys Chambers Tab

version 2
version 2

Whole song

Interactive

117,963 views 111 this week
10 commentsread comments
1 2 3 4 5
x 43
add to favorites
launch autoscroll
font size
0
reset
how to read this tab
guitar tuner
Autoscroll
slow
fast
+/-
esc
set tempo
stop
Help us to improve Ultimate-Guitar.com Take our survey!
×
Author
-----------------------------------------------------------------------------
                     Kings of leon:Mollys chamber
-----------------------------------------------------------------------------
Tabbed by:Nath

This is the first whole song tab i've done on my own. 


[Intro/Verse]

(Guitar 1 and 2)

e|--------------------------------------------------------|
B|--------------------------------------------------------|
G|-3------------3------------3------------3---------------|
D|-4--4-4-4-4-4-4--4-4-4-4-4-4--4-4-4-4-4-4--4-4-4-4-4----|
A|-4--4-4-4-4-4-4--4-4-4-4-4-4--4-4-4-4-4-4--4-4-4-4-4----|
E|-2--0-2-0-2-0-2--0-2-0-2-0-2--0-2-0-2-0-2--0-2-0-2-0----|(x6)


[Chorus]

e|----------------------------------------------------------------------------|
B|----------------------------------------------------------------------------|
G|----------------------------------------------------------------------------|
D|-9--9--9-9-9-9-7--7--7-7-7-7-4--4-4-4-4-4-4--4-4-4-4-4-9--9--9-9-9-9-12--12-|
A|-9--9--9-9-9-9-7--7--7-7-7-7-4--4-4-4-4-4-4--4-4-4-4-4-9--9--9-9-9-9-12--12-|
E|-7--7--7-7-7-7-5--5--5-5-5-5-2--0-2-0-2-0-2--0-2-0-2-0-7--7--7-7-7-7-10--10-|

e|----------------------------------------------------------------------------|
B|----------------------------------------------------------------------------|
G|----------------------------------------------------------------------------|
D|-12-12-12-12----------------------------------------------------------------|
A|-12-12-12-12----------------------------------------------------------------|
E|-10-10-10-10----------------------------------------------------------------|


[Verse]

 (Guitar 1)
e|------------------------------------------------------|
B|------------------------------------------------------|
G|------------------------------------------------------|
D|-4--4-4-4-4-4-4--4-4-4-4-4-4--4-4-4-4-4-4--4-4-4-4-4--|
A|-4--4-4-4-4-4-4--4-4-4-4-4-4--4-4-4-4-4-4--4-4-4-4-4--|
E|-2--0-2-0-2-0-2--0-2-0-2-0-2--0-2-0-2-0-2--0-2-0-2-0--|(x5)

 Guitar 2
e|---------------------------------------------------------|
B|-------------7------5--7--5--7--5---7--------------------|
G|-------------6------6--6--6--6--6---6--------------------|
D|---------------------------------------------------------|
A|---------------------------------------------------------|
E|---------------------------------------------------------|(x5)

Play the chorus again


[Solo]

e|-12b14-12b14-12b14-12b14--12b14p12-9-----------------------12------12-------|
B|--------------------------------------12b14p12-10-10-10-12-13b14-14---------|
G|----------------------------------------------------------------------------|
D|----------------------------------------------------------------------------|
A|----------------------------------------------------------------------------|
E|----------------------------------------------------------------------------|

e|-12----------12-------------------------------------------------------------|
B|-13b14p13----13b14-4/----------4/----------4/-4/-2---2-4-4/-4/-4-4-4-4--4---|
G|----------14-------4/-\2---2-4-4/-\2---2-4-4/-4/---4-----4/-4/-4-4-4-4--4---|
D|-------------------------4-----------4--------------------------------------|
A|----------------------------------------------------------------------------|
E|----------------------------------------------------------------------------|


************************************

| p  Pull-off
| b  Bend
| /  Slide up
| \  Slide down

************************************
Suggest correction
comments
print report bad tab
10 comments total. Showing first comments. show 1 bad comment
-1 reply
ridge4230 10 Mar 20, 2005 12:00 AM

i''m not sure about the solo or the chorus (those could be right). the intro sounds like there needs to be another guitar tabbed. Try playing drop D and play these chords(F#5, then E5) maybe you can figure out where the rest of the song goes with those two notes.

+1 reply
Blink90Bedford 10 Jul 03, 2006 06:03 PM

pretty much all of the chords are barre chords, the guitar 2 chorus part is played on the B string, and i also think the first part of the solo starts with bends on the 17th fret of the B string. Pretty simple tab, but correct n good for a beginner to write or play.

guest
You may want to rate the tab now too:
select rating
Wanna post a correction for this tab? Suggest correction