Oops, an error
Loading. Please wait.

Mollys Chambers Bass Tab

version 3
version 3

Whole song

Interactive

6,261 views 15 this week
no commentswrite comment
1 2 3 4 5
x 6
add to favorites
launch autoscroll
font size
0
reset
guitar tuner
Autoscroll
slow
fast
+/-
esc
set tempo
stop
Help us to improve Ultimate-Guitar.com Take our survey!
×
Author
Difficulty
novice
MOLLYS CHAMBERS  KINGS OF LEON

INTRO
G|---------------|
D|---------------|
A|---------------|
E|-2-2-0-2-0-2-0-| X 8

VERSE 1
G|---------------|
D|---------------|
A|---------------|
E|-2-2-0-2-0-2-0-| X 16

CHORUS 1
G|---------------------------|         G|---------------|
D|---------------------------|         D|---------------|
A|---------------------------|         A|---------------|
E|-7--7--7--7--5--5--5--5----| X 1     E|-2-2-0-2-0-2-0-| X 2

G|---------------------------|         G|---------------|
D|---------------------------|         D|---------------|
A|---------------------------|         A|---------------| 
E|-7--7--7--7--10--10--10--10| X 1     E|-2-2-0-2-0-2-0-| X 4

VERSE 2
G|---------------|
D|---------------|
A|---------------|
E|-2-2-0-2-0-2-0-| X 16

CHORUS 2
G|---------------------------|         G|---------------|
D|---------------------------|         D|---------------|
A|---------------------------|         A|---------------|
E|-7--7--7--7--5--5--5--5----| X 1     E|-2-2-0-2-0-2-0-| X 2

G|---------------------------|         G|---------------|
D|---------------------------|         D|---------------|
A|---------------------------|         A|---------------| 
E|-7--7--7--7--10--10--10--10| X 1     E|-2-2-0-2-0-2-0-| X 4

SOLO
G|-------------------------------|
D|-------------------------------|
A|-------------------------------|
E|-7--7--10--10--2-2-2-2-2-2-2-2-| X 3 

G|-------------------------------------------|
D|-------------------------------------------|
A|-------------------------------------------|
E|-5-5-5-5-7-7-7-7-7-7-7-7------------5------|

OUTRO
G|---------------|
D|---------------|
A|---------------|
E|-2-2-0-2-0-2-0-| X 2

G|---------------------------|        G|---------------|
D|---------------------------|        D|---------------|
A|---------------------------|        A|---------------| 
E|-7--7--7--7--10--10--10--10| X 1    E|-2-2-0-2-0-2-0-| X 2

G|---------------------------|        G|---------------|
D|---------------------------|        D|---------------|
A|---------------------------|        A|---------------|
E|-7--7--7--7--5--5--5--5----| X 1    E|-2-2-0-2-0-2-0-| X 2

G|---------------------------|     
D|-----------------------12--|      
A|---------------------------|      
E|-7--7--7--7--10--10--10----| X 1  

Suggest correction
comments
print report bad tab
guest
You may want to rate the tab now too:
select rating
Wanna post a correction for this tab? Suggest correction