Oops, an error
Loading. Please wait.

Muchacho Bass Tab

466 views 21 this week
no commentswrite comment
1 2 3 4 5
2 more votes to show rating
add to favorites
launch autoscroll
font size
0
reset
guitar tuner
Autoscroll
slow
fast
+/-
esc
set tempo
stop
Help us to improve Ultimate-Guitar.com Take our survey!
×
Author
[Intro]

G|-----------------------------------|
D|-----------------------------------|
A|-----------------------------------| x2
E|6-6-8-9--9-9-x-8h9-9-9-8-6--6-6-4h6|

[Verse]

G|-----------------------------------|
D|-----------------------------------|
A|-----------------------------------| x2
E|6-6-8-9--9-9-x-8h9-9-9-8-6--6-6-4h6|

G|--------------------------------------|
D|--------------------------------------|
A|--------------------------------------|
E|6-6-x-4-x-2--2-2-1h2-2-2-3-4-x-4-4-2h4|


[Chorus]

Original one:

G|---------------------------------------------------------|
D|---------------------------------------------------------|
A|---------13\6-----6/13\6-----6/13\6-----6/13\6-----6/13\6|
E|4-4-x-5/------6-6--------6-6--------6-6--------6-6-------|

From making of:

G|---------------------------------------------------------|
D|---------------------------------------------------------|
A|---11-12-13\6-----6/13\6-----6/13\6-----6/13\6-----6/13\6|
E|--------------6-6--------6-6--------6-6--------6-6-------|

[Outro]

G|-----------------------------------|
D|-----------------------------------|
A|-----------------------------------| x2
E|6-6-8-9--9-9-x-8h9-9-9-8-6--6-6-4h6|

G|--------------------------------------|
D|--------------------------------------|
A|--------------------------------------|
E|6-6-x-4-x-2--2-2-1h2-2-2-3-4-x-4-4-2h4|


G|------------------------------------------------------------|
D|------------------------------------------------------------|
A|---------13\6-----6/13\6-----6/13\6-----6/13\6-----6/13\6~~~|
E|4-4-x-5/------6-6--------6-6--------6-6--------6-6----------|
************************************
| x   Dead note
| /   Slide up
| \   Slide down
| ~   Vibrato
************************************
Suggest correction
Give kudos to tab author, rate the tab!
1 2 3 4 5
comments
print report bad tab
guest
You may want to rate the tab now too:
select rating
Wanna post a correction for this tab? Suggest correction