Oops, an error
Loading. Please wait.

Muchacho Tab

979 views 87 this week
no commentswrite comment
1 2 3 4 5
1 last vote to show rating
add to favorites
launch autoscroll
font size
0
reset
how to read this tab
guitar tuner
Autoscroll
slow
fast
+/-
esc
set tempo
stop
Help us to improve Ultimate-Guitar.com Take our survey!
×
About this tab version
It's the first tab of the song. Was this info helpful? Yes No
This is one of the best songs of the new album. Nice melody and very good solo.



Rhythm Guitar

Caleb plays this Chords on Acoustic through out song with various strumming patterns:

e|---------------------------------------------------------------------------|
B|---------------------------------------------------------------------------|
G|-8------6-------8------7----3----5-----6-----------------------------------|
D|-11-----8-------11-----8----4----6-----8-----------------------------------|
A|-11-----8-------11-----8----4----6-----8-----------------------------------|
E|-9----8-6-----8-9----8-6----2----4---5-6--------------8--------------------|


Matthew changes his leads all the time in the song. This is the main idea of what he plays. Improvise with 
heavy reverb.


   |      Db     |     Bb     |      Db      |      Bb     |

e|-------------------------------------9-------------------------------------|
B|-9----9--------6-------6----9---9----------6---6---6-----------------------|
G|---10---10-------6---6--------10-----9-------6---6-------------------------|
D|-----------8-------8--------------8----------------------------------------|
A|---------------------------------------------------------------------------|
E|---------------------------------------------------------------------------|

   |      Gb     |      Ab      |     Bb       |     Bb        |


e|--6-----6-------8------8----8-9----------8---9-----------------------------|
B|----6-----6-------6------6-------------6---6-------------------------------|
G|------6-----6-------6------6-----------------------------------------------|
D|---------------------------------------------------------------------------|
A|---------------------------------------------------------------------------|
E|---------------------------------------------------------------------------|


[Solo]

e|--------------------------------16-/-14--13--14-/-16-----------------------|
B|-16b18r16-14--16b18~~-----------18-/-16--14--16-/-18-----------------------|
G|-----------------------------------------------------17~~~~----------------|
D|---------------------------------------------------------------------------|
A|---------------------------------------------------------------------------|
E|---------------------------------------------------------------------------|

e|-----------------------16--------------------------------------------------|
B|-16b18r16-14--16b18-------18r16----14b16-14--------------------------------|
G|---------------------------------------------16b18--16---------------------|
D|---------------------------------------------------------------------------|
A|---------------------------------------------------------------------------|
E|---------------------------------------------------------------------------|

e|------------------------------------------------------------------------------|
B|-----------14-------------------14-----------------------14-13b14r13b14r13b14-|
G|-----13-------13b15~~-----13-15-----13b15~~--------13-------------------------|
D|-/15----15------------/15----------------------/15----15----------------------|
A|------------------------------------------------------------------------------|
E|------------------------------------------------------------------------------|

e|-------------------------6~~--------------------------------------------------|
B|-------------------------6~~--------------------------------------------------|
G|-13--------13b15~~~------6~~--------------------------------------------------|
D|----15------------------------------------------------------------------------|
A|-------16---------------------------------------------------------------------|
E|------------------------------------------------------------------------------|

If you noticed any mistakes, feel free to leave a comment.


************************************

| x   Dead note
| g   Grace note
| (n) Ghost note
| h   Hammer-on
| p   Pull-off
| r   Release
| >   Accented note
| t   Tapping
| b   Bend
| br  Bend release
| pb  Pre-bend
| pbr Pre-bend release
| /   Slide up
| \   Slide down
| ~   Vibrato
| s   Slap
| P   Pop
| PM  Palm mute
| TR  Trill
| N   Tremolo

************************************
Suggest correction
Give kudos to tab author, rate the tab!
1 2 3 4 5
comments
print report bad tab
guest
You may want to rate the tab now too:
select rating
Wanna post a correction for this tab? Suggest correction