Oops, an error
Loading. Please wait.

My Party bass

version 2
version 2

Whole song

Interactive

11,448 views 6 this week
6 commentsread comments
1 2 3 4 5
x 8
add to favorites
×
Save as Personal and add changes to this tab that will be seen only by you. Learn more ›
×
You can save this tab as Personal to edit and correct it or add notes. All changes will be seen only by you. Learn more »
launch autoscroll
font size
0
reset
guitar tuner
edit
Autoscroll
slow
fast
+/-
esc
set tempo
stop
Difficulty
intermediate
My Party - Kings of Leon

h - Hammer On
\ - Slide Down
/ - Slide Up


Intro      x16
G|---------|
D|---------|
A|-----7-9-|
E|--7-9----|

Verse                       x4
G|--------------------------|
D|(2 9's 1st Time)----------|
A|--------------------------|
E|--999\--999\--9999\--999\-|

Pre-Chorus                x4
G|--------11-9-9----------|
D|--------------11-9-9----|
A|-----10--------------10-|
E|--9---------------------|

Chorus                                   x2  
G|----------------------------------------|
D|----------------------------------------|
A|----------------------------------------|
E|-9999995--5555552--2222222--2222222-----|

Verse                       x2
G|--------------------------|
D|--------------------------|
A|--------------------------|
E|--999\--999\--9999\--999\-|

Verse(tail)                 x1
G|-----------------------------|
D|-----------------------------|
A|--------------------------20\|
E|--999\--999\--9999\--999\----|

Verse(tail#2) *Not sure just a guess*       x1
G|--------------------------------------15--|
D|--------------------------------15-17-----|
A|--------------------------15-17-----------|
E|--999\--999\--9999\--999\-----------------|

Pre-Chorus                x4
G|--------11-9-9----------|
D|--------------11-9-9----|
A|-----10--------------10-|
E|--9---------------------|

Chorus                                   x2  
G|----------------------------------------|
D|----------------------------------------|
A|----------------------------------------|
E|-9999995--5555552--2222222--2222222-----|

Chorus Riff#2                                x2 
G|--------------------------------------------|
D|--------------------------------------------|
A|--------------------------------------------|
E|-9999999/--5555555/--22222222--22222222-----|

Pre-Chorus                x8
G|--------11-9-9----------|
D|--------------11-9-9----|
A|-----10--------------10-|
E|--9---------------------|

Bridge          x3 - Break - x4
G|----------------------------------------------------------------------|
D|----------------------------------------------------------------------|
A|----------------------------------------------------------------------|
E|7h9-7h9-7h9-7h90--4h5-4h5-4h5-4h50--0h2-0h2-0h2-0h20-0h2-0h2-0h2-0h20-|

Drumfill

Chorus                                   x2  
G|----------------------------------------|
D|----------------------------------------|
A|----------------------------------------|
E|-9999995--5555552--2222222--2222222-----|

Chorus Riff#2                                x3 
G|--------------------------------------------|
D|--------------------------------------------|
A|--------------------------------------------|
E|-9999999/--5555555/--22222222--22222222-----|

Sorry if i got the amount of notes played in the chorus wrong, but you get the idea.








            
            
Suggest correction
Creating personal tab
Creating personal tab
You can edit any tab online and save it as your Personal.

You can edit, replace or remove any tab part or add personal notes – all changes will be seen only by you.

Personal tabs can be accessed anytime from any device, even offline.
Learn more »
comments
print report bad tab
6 comments total. Showing first comments.
+1 reply
benblakeway14 10 Oct 09, 2008 02:00 PM

The pre-chorus is actually:

G--------9----------------------
D---11-9---11-9-----------------
A---------------11--------------
E-9-----------------------------

0 reply
REDFOX 200 Jun 13, 2009 03:15 PM

ACTUALLY its

G--------9----------------------
D---11-----11-------------------
A------11-----11--9-------------
E-9-----------------------------

0 reply
REDFOX 200 Jun 13, 2009 03:17 PM

ACTUALLY ITS
G--------9------------------
D---11-----11---------------
A------11-----11-9----------
E-9-------------------------

guest
Wanna post a correction for this tab? Suggest correction