Oops, an error
Loading. Please wait.

Notion tab

version 4
version 4

Whole song

Interactive

6,479 views 3 this week
1 commentread comment
1 2 3 4 5
3 more votes to show rating
add to favorites
×
Save as Personal and add changes to this tab that will be seen only by you. Learn more ›
×
You can save this tab as Personal to edit and correct it or add notes. All changes will be seen only by you. Learn more »
launch autoscroll
font size
0
reset
how to read this tab
guitar tuner
edit
Autoscroll
slow
fast
+/-
esc
set tempo
stop
Author
Difficulty
About this tab version
This is the official version. Was this info helpful? Yes No
                            NOTION


Info: There are basically just 4 chords played over one repeating four-bar chord progression.

Tuning:standard EADGBe


riff 1 (intro, let ring throughout)                               (finish)
e|---0--0--0--0--0--0--0----0---0--0---0---0----0----0---0----0----0--------|
B|-----------------------------------------------------------------0--------|
G|-9--9--9--8--6--6--6--/14--13--13--13--16--\11--11--/14--13------13-------|
D|--------------------------------------------------------------------------|
A|--------------------------------------------------------------------------|
E|--------------------------------------------------------------------------|


Verse 1: 0:13

Use alternate picked strumming pattern   (finish)
e|----0-------0------0-------0---------------0----------------------------|
B|----0-------0------0-------0---------------0----------------------------|
G|----13------6------9-------8---------------13---------------------------|
D|----14------7------11------9---------------14---------------------------|
A|----14------7------11------9---------------14---------------------------|
E|----0-------0------0-------0---------------0----------------------------|

Chorus: 0:41

This part uses exactly the same chord shapes as the verse but avoids the open strings

e|-----------------------------------------------------------------------|
B|-----------------------------------------------------------------------|
G|--------13--------13--------6--------6--------9---------9---------8----|
D|--------13--------13--------7--------7--------11--------11--------9----|
A|--x--x--14--x--x--14--x--x--7--x--x--7--x--x--11--x--x--11--x--x--9--x-|
E|-----------------------------------------------------------------------|

e|-----------------------------------|
B|-----------------------------------|
G|---8-------------------------------|
D|---9-------------------------------|
A|x--9-------------------------------|
E|-----------------------------------|


Solo: 1:35  w/ pitch shifter 8ve up and down


e|----------------------------------------------------------------------|
B|----------------------------------------------------------------------|
G|-----------------------BU-------BD------------------------------------|
D|--9----8----6----9----9(11)-------(9)----8----9/10--10(13)------------|
A|----------------------------------------------------------------------|
E|----------------------------------------------------------------------|

1.
e|----------------------------------------------------------------------|
B|----------------------------------------------------------------------|
G|-------BD-------------------------------------------------------------|
D|---13-----(10)------9--8--6----9--8-----------------------------------|
A|-------------------------------------9--------------------------------|
E|----------------------------------------------------------------------|

2.
e|----------------------------------------------------------------------|
B|----------------------------------------------------------------------|
G|-------BD-------------------------------------------------------------|
D|---13-----(10)------9--8--6----9--8----------BU-----------BD----------|
A|-------------------------------------9-----11--(13)-----------(11)----|
E|----------------------------------------------------------------------|


Breakdown: 1:48
1.
e|--0-------------------------------------------------------------------|
B|--0-------------------------------------------------------------------|
G|--13-------6--------9-------8-----------------------------------------|
D|--14-------7--------11------9-----------------------------------------|
A|--14-------7--------11------9-----------------------------------------|
E|--0--------0--------0-------0-----------------------------------------|

2.
e|--0-------------------------------------------------------------------|
B|--0-------------------------------------------------------------------|
G|--13-------6--------9-------8--8--8--8------8--8--8--8----------------|
D|--14-------7--------11------9--9--9--9------9--9--9--9----------------|
A|--14-------7--------11------9--9--9--9------9--9--9--9----------------|
E|--0--------0--------0-------0--0--0--0------0--0--0--0----------------|

Outro: 2:01  Similar to the intro but with the addition of the open 2nd string

1-7
e|-----------0-----------0-----------0-----------0-------------0-------------0--|
B|-----0-----------0-----------0-----------0------------0-------------0---------|
G|--9-----9-----9-----8-----6-----6-----6-----6-----13-----13-----13-----13-----|
D|------------------------------------------------------------------------------|
A|------------------------------------------------------------------------------|
E|------------------------------------------------------------------------------|
                                   (8th time)
e|-------------0-------------0----------------0-------------0---------0----0--|
B0|-----0-------------0----------------0-------------0-------------0-------0--|
G|--11-----11-----14-----13--------13-----13-----13-----13-----11----------9--|
D|-------------------------------------------------------------------------9--|
A|-------------------------------------------------------------------------7--|
E|-------------------------------------------------------------------------0--|


Hope you enjoyed this tab, I believe it sounds 100% correct.
For the verse just listen to the song to figure out the  strumming pattern, have fun and 
:) Mike
Suggest correction
Creating personal tab
Creating personal tab
You can edit any tab online and save it as your Personal.

You can edit, replace or remove any tab part or add personal notes – all changes will be seen only by you.

Personal tabs can be accessed anytime from any device, even offline.
Learn more »
Give kudos to tab author, rate the tab!
1 2 3 4 5
comments
print report bad tab
1 comment total.
0 reply
antroolez 920 Aug 24, 2009 04:51 PM

wow, you should write for Total Guitar magazine....

:)

guest
You may want to rate the tab now too:
select rating
Wanna post a correction for this tab? Suggest correction