Oops, an error
Loading. Please wait.
We have an official On Call tab made by UG professional guitarists. Check out the tab »
×
38,393 views 9 this week
10 commentsread comments
1 2 3 4 5
x 15
add to favorites
×
Save as Personal and add changes to this tab that will be seen only by you. Learn more ›
×
You can save this tab as Personal to edit and correct it or add notes. All changes will be seen only by you. Learn more »
launch autoscroll
font size
0
reset
guitar tuner
backing track
0:00
0:00
edit
Autoscroll
slow
fast
+/-
esc
set tempo
stop
Author
----------------------------------------------------------------------------
			     On Call - Kings Of Leon
-----------------------------------------------------------------------------

Tabbed By : Duffboy
e-mail: Duffboyyuk@hotmail.com

Tuning: Standard (EAGD)

Intro (Bass Comes In At 0:38 seconds)
G|---------------------------------------------------------------------------|
D|---------------------------------------------------------------------------|
A|---------------------------------------------------------------------------|
E|-3—–3--3--3--3--0--3--5--7--7--7--7--7--0-2-2-3—–--------------------------|

Verse
G|---------------------------------------------------------------------------|
D|---------------------------------------------------------------------------|
A|---------------------------------------------------------------------------|
E|-3--3--3--3--3--0--3-—5--7--7--7--7--7--0-2-2-3—---------------------------|

Verse Variant
G|---------------------------------------------------------------------------|
D|---------------------------------------------------------------------------|
A|---------------------------------------------------------------------------|
E|-3--3--3--3--3--0--3-—5--7--7--7--7--7--0-2-0-2—---------------------------|

Verse & Pre-chorus
G|---------------------------------------------------------------------------|
D|---------------------------------------------------------------------------|
A|---------------------------------------------------------------------------|
E|-3--3--3--3--3--0--3--5--7//17~----/19-17—15—–---—–---------–--------------|

Chorus
G|---------------------------------------------------------------------------|
D|---------------------------------------------------------------------------|
A|----------------------------------------/17-14-12--------------------------|
E|-3--3--3--3--3--0--3-—5--7--7--7--7--7--—-------—–—--—------------------—–-|

G|---------------------------------------------------------------------------|
D|--------------------------------------------17----16-----------------------|
A|----------------------------------------/19----17--------------------------|
E|-3--3--3--3--3--0--3-—5--7--7--7--7--7--—----------—–—-------—-------------|

Guitar Solo
G|---------------------------------------------------------------------------|
D|---------------------------------------------------------------------------|
A|--------------------------------—–3-3-3-3-3-3-3-3-3-3-3-3-3-3-3/7----------|
E|-3-3-3-3-3-3-3-3-3-3-3-3-3-3-3-3-------------------------------------------|

G|---------------------------------------------------------------------------|
D|---------------------------------------------------------------------------|
A|-5-5-5-5-5-5-5-5-5-5-5-5-5-5-5/9—-7-7-----7-7-----7-7-----7-7--—–/9--------|
E|--------------------------------------0-0-----0-0-----0-0-----0------------|

G|---------------------------------------------------------------------------|
D|---------------------------------------------------------------------------|
A|-10-10-10-10-10-10-10-10-10-10-10-10-10-10-10-10---------------------------|
E|---------------------------------------------------------------------------|

G|---------------------------------------------------------------------------|
D|---------------------------------------------------------------------------|
A|3-3-3-3-3-3-3-3-3-3-3-3-3-3-3/7-|-5-5-5-5-5-5-5-5-5-5-5-5-5-5/19--------—–-|
E|---------------------------------------------------------------------------|

Those are all the parts nailed (I think). It’s a pretty simple song, so I am sure you 
work out the order for yourself. Have fun with it.
Queries, comments or complaints, just email me.

| /  slide up
| \  slide down
| h  hammer-on
| p  pull-off
| ~  vibrato
| +  harmonic
| x  Mute note
=============================================================================

            
            
Suggest correction
Creating personal tab
Creating personal tab
You can edit any tab online and save it as your Personal.

You can edit, replace or remove any tab part or add personal notes – all changes will be seen only by you.

Personal tabs can be accessed anytime from any device, even offline.
Learn more »
comments
print report bad tab
10 comments total. Showing first comments.
0 reply
Redferret 41 Mar 29, 2007 02:46 AM

the 0-3-5-7 part is wrong, i'm pretty sure it's 0-2-3-7

0 reply
Billy Bass 86 Apr 01, 2007 03:12 AM

this suks.....id rate it badly but it wont let me....

0 reply
bassist792 81 Apr 07, 2007 11:27 AM

nice 1 thanks, got any idea how to get that effect??

guest
You may want to rate the tab now too:
select rating
Wanna post a correction for this tab? Suggest correction