Oops, an error
Loading. Please wait.

On Call tab

version 1
version 1

Whole song

Interactive

31,483 views 1 this week
4 commentsread comments
1 2 3 4 5
x 6
add to favorites
×
Save as Personal and add changes to this tab that will be seen only by you. Learn more ›
×
You can save this tab as Personal to edit and correct it or add notes. All changes will be seen only by you. Learn more »
launch autoscroll
font size
0
reset
how to read this tab
guitar tuner
backing track
0:00
0:00
edit
Autoscroll
slow
fast
+/-
esc
set tempo
stop
Author
Difficulty
Heres th KIngs of Leons First released song off their new album,its a bit iffy at parts 
i think it works!

Tuning:standard

Intro bass also played through out song:(the end of the riffs a bit off,but you get the jist)
G|--------------------------------------------------------------------------|
D|--------------------------------------------------------------------------|
A|--------------------------2--2--2--2--2-----------------------------------|
E|--3--3--3--3--3--0--2--3------------------0-0-2-2-------------------------|

Lead enters:
               Palm Mute-----------------------------------------------------| Repeat
e|--10------------------10--------------------------|--10--------------------|
B|--10------------------10--------------------------|--10--------------------|
G|--12--x8--------------12-----x32------------------|--12--------------------|
D|--12------------------12--------------------------|--12--------------------|
A|--10------------------10--------------------------|--10--------------------|
E|--------------------------------------------------|------------------------|

these two riffs are played and then when he says''i'll be there waiting''
the bass slide like this:


G|--------------------------------------------------------------------------|
D|--------------------------------------------------------------------------|
A|--------------------------------------------------------------------------|
E|-3/7----------------------------------------------------------------------|

caleb(the second guitarist/singer)plays:

e|----15---------------------------------------------------------------------|
B|----0----------------------------------------------------------------------|
G|----0----------------------------------------------------------------------|
D|----0----------------------------------------------------------------------|
A|----14---------------------------------------------------------------------|
E|----15---------------------------------------------------------------------|

the lead just keeps playin the same chord as shown above then when it comes to the 
and they are sing ''i come a runin'' the bass starts playin:

G|---------------------------------------------------------------------------|
D|---------------------------------------------------------------------------|
A|---------------------------------------------------------------------------|
E|-3-3-3-3-3-3-3-3-3-3-3-3--8-8-8-8-8-8-8-8-8-8-8-8--10-10-10-10-10-10-10-10-|

                             then repeats but doesnt play 7 and stays on 10
G|--------------------------------------------------------------------------|
D|--------------------------------------------------------------------------|
A|--------------------------------------------------------------------------|
E|-10-10--7-7-7-7-7-7-7-7-7-7-7---------------------------------------------|

caleb plays the same chord,but the lead starts playing:
e|--------------------------------------------------------------------------|
B|--------------------------------------------------------------------------|
G|-------------12--11------------12--11-------------------------12--11------|
D|--9--7--9------------9--7--9----------9--7--9--12--14--12--9--------------|
A|--------------------------------------------------------------------------|
E|--------------------------------------------------------------------------|

then i dont know what happens in the solo,just mess around on the 12-17 frets on the g 
b string,something like that then all the other riffs are repeated and thats all i could 
so have fun with it!mark.

            
            
Suggest correction
Creating personal tab
Creating personal tab
You can edit any tab online and save it as your Personal.

You can edit, replace or remove any tab part or add personal notes – all changes will be seen only by you.

Personal tabs can be accessed anytime from any device, even offline.
Learn more »
comments
print report bad tab
4 comments total. Showing first comments.
0 reply
antroolez 920 Mar 19, 2007 07:12 AM

Ragoo Bass

G|-----------------------------------------------------------|
D|-----------------------------------------------------------|
A|-9------------------------9-----9/10/9---------------------|
E|---10---5----7--9--7/5------10-----------10----5-----------|

0 reply
jhendrixrules 10 Mar 21, 2007 12:28 AM

good tab. nice bass. thanx man.

0 reply
Redferret 41 Mar 29, 2007 09:35 AM

end of the bass line is 0223 not 0022

guest
You may want to rate the tab now too:
select rating
Wanna post a correction for this tab? Suggest correction