Oops, an error
Loading. Please wait.

On Call bass

version 2
version 2

Whole song

Interactive

9,660 views 3 this week
2 commentsread comments
1 2 3 4 5
x 7
add to favorites
×
Save as Personal and add changes to this tab that will be seen only by you. Learn more ›
×
You can save this tab as Personal to edit and correct it or add notes. All changes will be seen only by you. Learn more »
launch autoscroll
font size
0
reset
guitar tuner
backing track
0:00
0:00
edit
Autoscroll
slow
fast
+/-
esc
set tempo
stop
listen to the track to get the order

Intro (Bass Comes In At 0:38 seconds)
G|-------------------------------------------------------------|
D|-------------------------------------------------------------|
A|-------------------------------------------------------------|
E|-3--3--3--3--3--0--2--3--7--7--7--7--7--0-0-0-2--------------| repeat till next


G|---------------------------------------------------------------------------|
D|---------------------------------------------------------------------------|
A|---------------------------------------------------------------------------|
E|-3--3--3--3--3--0--2--3--3/15---------------------------7--3--2------------|

Chorus
G|------------------------------------------------------------|
D|------------------------------------------------------------|
A|------------------------------------------------------------|
E|-3--3--3--3--3--0--2--3--7--7--7--7--7--0-0-0-2-------------|


Guitar Solo
G|--------------------------------------------------------------------------------------|
D|--------------------------------------------------------------------------------------|
A|--------------------------------------------------------------------------------------|
E|-3-3-3-3-3-3-3-3-3-3-3-3-3-3-3-3-8-8-8-8-8-8-8-8-8-8-8-8-8-8-8-8----------------------|

G|----------------------------------------------------------------------|
D|----------------------------------------------------------------------|
A|----------------------------------------------------------------------|
E|-10-10-10-10-10-10-10-10-10-10-10-10-10-10-10-10----------------------|

G|----------------------------------------------------------------------|
D|----------------------------------------------------------------------|
A|----------------------------------------------------------------------|
E|-12-12-12-12-12-12-12-12-12-12-12-12-12-12-12-12----------------------|

G|--------------------------------------------------------------------------------------|
D|--------------------------------------------------------------------------------------|
A|--------------------------------------------------------------------------------------|
E|-3-3-3-3-3-3-3-3-3-3-3-3-3-3-3-3-8-8-8-8-8-8-8-8-8-8-8-8-8-8-8-8----------------------|

G|----------------------------------------------------------------------|
D|----------------------------------------------------------------------|
A|----------------------------------------------------------------------|
E|-10-10-10-10-10-10-10-10-10-10-10-10-10-10-10-10----------------------|

tabed by blann in swansea
goog luck!
Suggest correction
Creating personal tab
Creating personal tab
You can edit any tab online and save it as your Personal.

You can edit, replace or remove any tab part or add personal notes – all changes will be seen only by you.

Personal tabs can be accessed anytime from any device, even offline.
Learn more »
comments
print report bad tab
2 comments total.
0 reply
bass_player1010 159 May 20, 2007 02:35 PM

solo's a bit wrong, missin some slides

0 reply
TOMTOMsatnav94 10 Dec 01, 2008 09:46 AM

good tab! :) pretty much perfect apart from the solo

guest
Wanna post a correction for this tab? Suggest correction