Oops, an error
Loading. Please wait.
We have an official On Call tab made by UG professional guitarists. Check out the tab »
×
30,373 views 1 this week
9 commentsread comments
1 2 3 4 5
x 12
add to favorites
×
Save as Personal and add changes to this tab that will be seen only by you. Learn more ›
×
You can save this tab as Personal to edit and correct it or add notes. All changes will be seen only by you. Learn more »
launch autoscroll
font size
0
reset
guitar tuner
backing track
0:00
0:00
edit
Autoscroll
slow
fast
+/-
esc
set tempo
stop
Author
Difficulty
Intro                                           x4
G ------------------------------------------------||
D .----------------------------------------------.||
A .----------------------------------------------.||
E -3-3-3-3-3-0-2-3-7-7-7-7-7-0-00-2---------------||

Verse                                           x3
G ------------------------------------------------||
D .----------------------------------------------.||
A .----------------------------------------------.||
E -3-3-3-3-3-0-2-3-7-7-7-7-7-0-00-2---------------||

G ------------------------------------------------||
D ------------------------------------------------||
A -----------------2///14.---------/14-10-9-------||
E -3-3-3-3-3-0-2-3--------------------------------||

Chorus
G ------------------------------------------------||
D ------------------------------------------------||
A ---------------------------/14-10-9-------------||
E -3-3-3-3-3-0-2-3-7-7-7-7-7----------------------||

G ----------------------------12-11---------------||
D ------------------------------------------------||
A -------------------------/10--9-----------------||
E -3-3-3-3-3-0-2-3-7-7-7-7------------------------||

Verse

Chorus                                          x2
G ------------------------------------------------||
D .----------------------------------------------.||
A .--------------------------/14-10-9------------.||
E -3-3-3-3-3-0-2-3-7-7-7-7-7----------------------||
                                                x2
G ----------------------------12-11---------------||
D .----------------------------------------------.||
A .------------------------/10--9----------------.||
E -3-3-3-3-3-0-2-3-7-7-7-7------------------------||

Solo     x4        x3                  x3                       x2
G ---------|---------|---------|---------|---------|--------------||
D .-------.|.-------.|---------|.-------.|---------|.------------.||
A .-------.|.3-3-3-3.|-3-3-3/7-|.5-5-5-5.|-5-5/9-9-|.7------7----.||
E -3-3-3-3-|---------|---------|---------|---------|----0-0----0-0||
                      x4        x3                  x3
G --------|-------------|---------|---------|---------|-----------||
D --------|.-----------.|.-------.|---------|.-------.|-----------||
A -7--9-7-|.10-10-10-10.|.3-3-3-3.|-3-3/7-7-|.5-5-5-5.|-5-5-5//\\-||
E ---0----|-------------|---------|---------|---------|-----------||
 
Outro                                           x3
G ------------------------------------------------||
D .----------------------------------------------.||
A .----------------------------------------------.||
E -3-3-3-3-3-0-2-3-7-7-7-7-7-0-00-2---------------||

                                                x4
G ----------------------------12-11---------------||
D .----------------------------------------------.||
A .------------------------/10--9----------------.||
E -3-3-3-3-3-0-2-3-7-7-7-7------------------------||

G --------------------------------||
D --------------------------------||
A --------------------------------||
E -3-3-3-3-3-0-2-3-77-------------||



            
            
Suggest correction
Creating personal tab
Creating personal tab
You can edit any tab online and save it as your Personal.

You can edit, replace or remove any tab part or add personal notes – all changes will be seen only by you.

Personal tabs can be accessed anytime from any device, even offline.
Learn more »
comments
print report bad tab
9 comments total. Showing first comments. show 1 bad comment
0 reply
benblakeway14 10 Jan 28, 2008 06:35 AM

Um, no they shouldn't

0 reply
greenhous3 10 Feb 25, 2008 06:20 PM

when the bass is playing w/o the guitar the 7's should be played, however when it is playing with the guitar and in the chorus the 7's should be 2's on the A

guest
You may want to rate the tab now too:
select rating
Wanna post a correction for this tab? Suggest correction