Oops, an error
Loading. Please wait.

On Call Tab

version 4
version 4

Whole song

Interactive

140,538 views 90 this week
16 commentsread comments
1 2 3 4 5
excellent!
x 26
add to favorites
launch autoscroll
font size
0
reset
how to read this tab
guitar tuner
Autoscroll
slow
fast
+/-
esc
set tempo
stop
Help us to improve Ultimate-Guitar.com Take our survey!
×
Author
Difficulty
intermediate
-------------------------------------------------------------------------------
			    ON CALL - Kings of Leon
-------------------------------------------------------------------------------


Tabbed by: Steve1989 (with credit to marco-butler & touchdown boy)
Email: groovy_steve@hotmail.co,


First of all, credit must go to marco-butler, touchdown_boy, and the other author who 
posted tabs for this song already, their tabs are great, i just picked up a few little 
that arn't quite right, and i thought i'd post up a tab that flows a little better too.
Thanks guys, I hope you dont mind me using your tabs.


Tuning: Standard (eBGDAE)

Guitar 1: 	Distortion  	Nathan Followill (Lead Guitar)
Guitar 2: 	Clean 		Caleb Followill (Rhythm Guitar & Vocals)
Bass:		Clean		Jared Followill


KEYBOARD INTRO		(Can be played on guitar)

e|----10---10--10-------10---10—-10-------10----10--10-------10----10—-10----|
B|--12---12--12---12--12---12--12---12--12----12--12---12--12----12—-12---12-|
G|---------------------------------------------------------------------------|
D|-9----9------------------------------12----12-----------12----12-----------|
A|-------------------10---10-------------------------------------------------|
E|---------------------------------------------------------------------------|


INTRO

Bass
G|--------------------------------------|
D|--------------------------------------| x4
A|------------------2-2-2-2-2-----------|
E|--3-3-3-3-3-0-2-3-----------0-0h2h3---|

Guitar 1
e|----------------------------2-2-2-2---|
B|----------------------------3-3-3-3---|
G|-Second time through play:--4-4-4-4---|
D|----------------------------4-4-4-4---|
A|----------------------------2-2-2-2---|
E|--------------------------------------|

e|----------------------------2-2-2-2------|
B|----------------------------3-3-3-3------| x2
G|---444444444444444-1111111--4-4-4-4------|
D|---555555555555555-2222222--4-4-4-4------|
A|---555555555555555-2222222--2-2-2-2------|
E|---333333333333333-0000000---------------|
     *************** *******
     ^|^|^|^|^|^|^|^ ^|^|^|^  ^ ^ ^ ^


1ST VERSE

Bass
G|--------------------------------------|
D|--------------------------------------| x3
A|------------------2-2-2-2-2-----------|
E|--3-3-3-3-3-0-2-3-----------0-0h2h3---|

G|--------------------------------------|
D|--------------------------------------|
A|------------------2-------------------|
E|--3-3-3-3-3-0-2-3---------------------|

Guitar 1
                    "I'll be there waiting"
e|------------------3----------2-----2--2--|
B|------------------3----------3-----3--3--|
G|------------------4----------4-----4--4--|
D|------------------5----------4-----4--4--|
A|------------------5----------2-----2--2--|
E|------------------3----------------------|


CHORUS

Guitar 1
e|-----------------------------2-2-2-2---|
B|-----------------------------3-3-3-3---|
G|---4-4-4-4-4-4-4-4-4-1-1-1-1-4-4-4-4---|     x 2
D|---5-5-5-5-5-5-5-5-5-2-2-2-2-4-4-4-4---|
A|---5-5-5-5-5-5-5-5-5-2-2-2-2-2-2-2-2---|
E|---3-3-3-3-3-3-3-3-3-0-0-0-0-----------|

Guitar 2
e|---15---15---15-15-15-15---15-15---15---15---|
B|---15---15---15-15-15-15---15-15---15---15---|
G|---0----0----0--0--0--0----0--0----0----0----|     x 2
D|---0----0----0--0--0--0----0--0----0----0----|
A|---14---14---14-14-14-14---14-14---14---14---|
E|---15---15---15-15-15-15---15-15---15---15---|
                ________      __
 (   |    |    |  |  |  |    |  |    |    |   )

2ND VERSE

Guitar 1
e|---------------------------2-2-2-2------------------------------33---2-2-2---|
B|---------------------------3-3-3-3------------------------------33---3-3-3---|
G|---4-4-4-4-4-4-4-4-1-1-1-1-4-4-4-4--x 3 then--4-4-4-4-4-4-4-4-xx44---4-4-4---|
D|---5-5-5-5-5-5-5-5-2-2-2-2-4-4-4-4------------5-5-5-5-5-5-5-5-xx55---4-4-4---|
A|---5-5-5-5-5-5-5-5-2-2-2-2-2-2-2-2------------5-5-5-5-5-5-5-5-xx55---2-2-2---|
E|---3-3-3-3-3-3-3-3-0-0-0-0--------------------3-3-3-3-3-3-3-3-xx33-----------|
     * * * * * * * * * * * *			* * * * * * * *
     ^ ^ ^ ^ ^ ^ ^ ^ ^ ^ ^ ^			^ ^ ^ ^ ^ ^ ^ ^ ^|^|   ^ ^ ^


CHORUS

Guitar 1
e|-----------------------------2-2-2-2--|
B|-----------------------------3-3-3-3--|    x 4
G|---4-4-4-4-4-4-4-4-4-1-1-1-1-4-4-4-4--|
D|---5-5-5-5-5-5-5-5-5-2-2-2-2-4-4-4-4--|
A|---5-5-5-5-5-5-5-5-5-2-2-2-2-2-2-2-2--|
E|---3-3-3-3-3-3-3-3-3-0-0-0-0----------|

Guitar 2
e|---15---15---15-15-15-15---15-15---15---15---|
B|---15---15---15-15-15-15---15-15---15---15---|    x 4
G|---0----0----0--0--0--0----0--0----0----0----|
D|---0----0----0--0--0--0----0--0----0----0----|
A|---14---14---14-14-14-14---14-14---14---14---|
E|---15---15---15-15-15-15---15-15---15---15---|
                ________      __
 (   |    |    |  |  |  |    |  |    |    |   )


SOLO

Guitar 1

"be there laughing"

e|-----------------------------------------------------------------------------|
B|-----------------------------------------------------------------------------|
G|--------/12~~-11~~------------------/12~~-11~~------------------/12~~-11~~---|
D|--------------------/99-7-7h9~----7------------/99-7-7h9~----7---------------|
A|-----------------------------------------------------------------------------|
E|-----------------------------------------------------------------------------|

e|-----------------------------------------------------------------------------|
B|-----------------------------------1515------1212----------------15----------|
G|--------/7-9-7-----/12~~-11~~-1212------1414------1414-1212—14b16--16r14-12--|
D|-/99-7-9-------9-7-----------------------------------------------------------|
A|-----------------------------------------------------------------------------|
E|-----------------------------------------------------------------------------|

e|------------------------------------------------------------------------------14b15r14---|
B|------15----15-------15----15----15-----15----15----15----15----15---15----15—15b16r15---|
G|-14b16—14b16—14b14b16—14b16—14b16—--14b16-14b16-14b16-14b16-14b16-------16---------------|
D|-----------------------------------------------------------------------------------------|
A|-----------------------------------------------------------------------------------------|
E|-----------------------------------------------------------------------------------------|
	        (^^ Note "double-bend" here - listen to the track)

e|----------------------------------------------------------------------------12--12~~-----|
B|--------15--------------------15----15-------15----15----15------15-----15------15b17~~--|
G|-----12---14b16--16r14-12-14b16-14b16-14b14b16-14b16-14b16---14b16-14b16-----------------|
D|-/14-------------------------------------------------------------------------------------|
A|-----------------------------------------------------------------------------------------|
E|-----------------------------------------------------------------------------------------|
					(^^ "double bend")

Guitar 2
e|---15---15---15-15-15-15---15-15---15---15---|
B|---15---15---15-15-15-15---15-15---15---15---|  x 8
G|---0----0----0--0--0--0----0--0----0----0----|
D|---0----0----0--0--0--0----0--0----0----0----|
A|---14---14---14-14-14-14---14-14---14---14---|
E|---15---15---15-15-15-15---15-15---15---15---|
                ________      __
 (   |    |    |  |  |  |    |  |    |    |   )


INTERLUDE

Bass
G|--------------------------------------|
D|--------------------------------------|  x 2
A|------------------2-2-2-2-2-----------|
E|--3-3-3-3-3-0-2-3-----------0-0h2h3---|

Guitar 1
e|----------------------------2-2-2-2---|
B|----------------------------3-3-3-3---|  x 2
G|----------------------------4-4-4-4---|
D|----------------------------4-4-4-4---|
A|----------------------------2-2-2-2---|
E|--------------------------------------|


CHORUS

Guitar 1
e|-----------------------------2-2-2-2---|
B|-----------------------------3-3-3-3---|  x 5
G|---4-4-4-4-4-4-4-4-4-1-1-1-1-4-4-4-4---|
D|---5-5-5-5-5-5-5-5-5-2-2-2-2-4-4-4-4---|
A|---5-5-5-5-5-5-5-5-5-2-2-2-2-2-2-2-2---|
E|---3-3-3-3-3-3-3-3-3-0-0-0-0-----------|

Guitar 2
e|---15---15---15-15-15-15---15-15---15---15---|
B|---15---15---15-15-15-15---15-15---15---15---|  x 5
G|---0----0----0--0--0--0----0--0----0----0----|
D|---0----0----0--0--0--0----0--0----0----0----|
A|---14---14---14-14-14-14---14-14---14---14---|
E|---15---15---15-15-15-15---15-15---15---15---|
                ________      __
 (   |    |    |  |  |  |    |  |    |    |   )

Guitar 1
e|-------------------33----|
B|-------------------33----|
G|---4-4-4-4-4-4-4-4-44----|
D|---5-5-5-5-5-5-5-5-55----|
A|---5-5-5-5-5-5-5-5-55----|
E|---3-3-3-3-3-3-3-3-33----|

Guitar 2
e|---15---15---15-15-15-15---1515---|
B|---15---15---15-15-15-15---1515---|
G|---0----0----0--0--0--0----0-0----|
D|---0----0----0--0--0--0----0-0----|
A|---14---14---14-14-14-14---1414---|
E|---15---15---15-15-15-15---1515---|
                ________      _
 (   |    |    |  |  |  |    | |    )

Cheers, Steve.


| /  slide up
| \  slide down
| b  bend-up
| r  release-down
| h  hammer-on
| p  pull-off
| ~  vibrato
| +  harmonic
| x  Mute note
| *  Palm mute note
===============================================================================
Suggest correction
comments
print report bad tab
16 comments total. Showing first comments.
0 reply
marco-butler 83 wrote on April 13 2007, 07:24 pm

hey man thanks for the credit,great version of the song helped me out a lot!!!thanks anyway!

-2 reply
CubeShindig 15 wrote on April 14 2007, 11:38 am

great, but the bass line is

INTRO

Bass
G|--------------------------------------|
D|--------------------------------------| x4
A|------------------2-2-2-2-2-----------|
E|--3-3-3-3-3-0-2-3-----------0-00-2----|

and in the jonathan ross live version, matthew used slides up to fret 16 in the solo, not double bends.
Just letting ya know!

+1 reply
NewYorkCares 10 wrote on April 19 2007, 03:52 pm

This is the correct Guitar 1 tab in the verse:

e|----------------------------2-2-2-2------|
B|----------------------------3-3-3-3------| x2
G|----------------------------4-4-4-4------|
D|----------------------------4-4-4-4------|
A|---555555555555555-7777777--2-2-2-2------|
E|---333333333333333-0000000---------------|

100 % correct!

guest
You may want to rate the tab now too:
select rating
Wanna post a correction for this tab? Suggest correction