Oops, an error
Loading. Please wait.

Over Bass Tab

version 1
version 1

Whole song

532 views 33 this week
no commentswrite comment
1 2 3 4 5
2 more votes to show rating
add to favorites
launch autoscroll
font size
0
reset
guitar tuner
Autoscroll
slow
fast
+/-
esc
set tempo
stop
Help us to improve Ultimate-Guitar.com Take our survey!
×
Author
[Intro]

G|----------------------------------------------------------------------------------------------------------|
D|------------------7-7-7-7-7-7-4-4-4-4-4-4-4-4-4-4-9-9-9-9-9-5-5-5-5-5-5-5-5-5/7-7-7-7------------7-7-7-7-7|
A|5-5-5-5-5-5-5-5-5--------------------------------------------------------------------5-5-5-5-5-5----------|
E|----------------------------------------------------------------------------------------------------------|

[Verse]

G|----------------------------------------------------------------------------------------------------------|
D|------------------7-7-7-7-7-7-4-4-4-4-4-4-4-4-4-4-9-9-9-9-9-5-5-5-5-5-5-5-5-5/7-7-7-7------------7-7-7-7-7|
A|5-5-5-5-5-5-5-5-5--------------------------------------------------------------------5-5-5-5-5-5----------|
E|----------------------------------------------------------------------------------------------------------|


[Chorus]

G|---------------------------------------------------------------------------------------------------------|
D|------------------7-7-7-7-7-7-4-4-4-4-4-4-4-4-4-4-7-7-7-7-9-9-9-9-9-5-5-5-5-5-5-5-5-5/7-7-7-7------------|
A|5-5-5-5-5-5-5-5-5----------------------------------------------------------------------------5-5-5-5-5-5-|
E|---------------------------------------------------------------------------------------------------------|

G|--------------------------------------------------------------------------------------------------------|
D|9-9-9-9-9-9-9-9-9-9-7-7-7-7-7-7-7-7-7-7-7-9-9-9-9-5-5-5-5-5-5-5-------------------------------------7-7-|
A|----------------------------------------------------------------7-7-7-7-7-9-9-9-9-9-5-5-5-5-5-5-5-5----5|
E|--------------------------------------------------------------------------------------------------------|

[Breakdown]

G|-----------------------------|
D|----7-7-4~~~-7/9-5~~~/7------|
A|5~~~--------------------5~~~-|
E|-----------------------------|


[Outro]

G|----------------------------------------------------------------------------------------------------------|
D|------------------7-7-7-7-7-7-4-4-4-4-4-4-4-4-4-4-9-9-9-9-9-5-5-5-5-5-5-5-5-5/7-7-7-7------------7-7-7-7-7|
A|5-5-5-5-5-5-5-5-5--------------------------------------------------------------------5-5-5-5-5-5----------|
E|----------------------------------------------------------------------------------------------------------|
Last bar:
G|----------------------------|
D|9-9-9-9-5-5-5-5-7-7-7-7-----|
A|------------------------5~~~|
E|----------------------------|

************************************
| /   Slide up
| ~   Vibrato
************************************
Suggest correction
Give kudos to tab author, rate the tab!
1 2 3 4 5
comments
print report bad tab
guest
You may want to rate the tab now too:
select rating
Wanna post a correction for this tab? Suggest correction