Oops, an error
Loading. Please wait.

Over Bass Tab

version 2
version 2

Whole song

247 views 3 this week
1 commentread comment
1 2 3 4 5
1 last vote to show rating
add to favorites
launch autoscroll
font size
0
reset
guitar tuner
Autoscroll
slow
fast
+/-
esc
set tempo
stop
Help us to improve Ultimate-Guitar.com Take our survey!
×
Author
Difficulty
intermediate
Kings Of Leon - Over (Album Version)
from Album: Walls, Track 5
Other Tracks on This Album:
1. Waste A Moment
2. Reverend
3. Around The World
4. Find Me
5. Over
6. Muchacho
7. Conversation Piece
8. Eyes On You
9. Wild
10. Walls

4/4 time! 
Most of the time its a tremolo picking on sixteenth notes (N).
Played w/ pick.

[Intro] (all tremolo picking)

G|--------|--------|--------|----4-4-|--------|--------|--------|--------|
D|--------|----7-7-|4-4-4-4-|4-4-----|5-5-5-5-|5-5-7-7-|--------|----7-7-|
A|5-5-5-5-|5-5-----|--------|--------|--------|--------|5-5-5-5-|5-5-----|      2x
E|--------|--------|--------|--------|--------|--------|--------|--------|


[Verse] 2x (all tremolo picking)

G|--------|--------|--------|----4-4-|--------|--------|--------|--------|
D|--------|----7-7-|4-4-4-4-|4-4-----|5-5-5-5-|5-5-7-7-|--------|----7-7-|
A|5-5-5-5-|5-5-----|--------|--------|--------|--------|5-5-5-5-|5-5-----|      2x
E|--------|--------|--------|--------|--------|--------|--------|--------|
 

[Chorus] (all tremolo picking)

G|--------|--------|--------|----4-4-|--------|--------|--------|--------|
D|--------|----7-7-|4-4-4-4-|4-4-----|5-5-5-5-|5-5-7-7-|--------|----7-7-|
A|5-5-5-5-|5-5-----|--------|--------|--------|--------|5-5-5-5-|5-5-----|      
E|--------|--------|--------|--------|--------|--------|--------|--------|
 

G|--------|--------|--------|--------|--------|--------|--------|--------|
D|9-9-9-9-|9-9-9-9-|7-7-7-7-|7-7-7-7-|5-5-5-5-|5-5-5-5-|--------|----7-7-|
A|--------|--------|--------|--------|--------|--------|5-5-5-5-|5-5-----|      
E|--------|--------|--------|--------|--------|--------|--------|--------|


[Verse] 1x (all tremolo picking)

G|--------|--------|--------|----4-4-|--------|--------|--------|--------|
D|--------|----7-7-|4-4-4-4-|4-4-----|5-5-5-5-|5-5-7-7-|--------|----7-7-|
A|5-5-5-5-|5-5-----|--------|--------|--------|--------|5-5-5-5-|5-5-----|      2x
E|--------|--------|--------|--------|--------|--------|--------|--------|


[Chorus] (all tremolo picking)

G|--------|--------|--------|----4-4-|--------|--------|--------|--------|
D|--------|----7-7-|4-4-4-4-|4-4-----|5-5-5-5-|5-5-7-7-|--------|----7-7-|
A|5-5-5-5-|5-5-----|--------|--------|--------|--------|5-5-5-5-|5-5-----|      
E|--------|--------|--------|--------|--------|--------|--------|--------|


G|--------|--------|--------|--------|--------|--------|--------|--------|
D|9-9-9-9-|9-9-9-9-|7-7-7-7-|7-7-7-7-|5-5-5-5-|5-5-5-5-|--------|----7-7-|
A|--------|--------|--------|--------|--------|--------|5-5-5-5-|5-5-----|      
E|--------|--------|--------|--------|--------|--------|--------|--------|


[Bridge] (no tremolo picking)

G|--------|--------|--------|----4-4-|--------|--------|--------|--------|
D|--------|----7-7-|4       |    ----|5       |    7-7-|--------|----7-7-|
A|5       |    ----|--------|--------|--------|--------|5       |    ----|      2x
E|--------|--------|--------|--------|--------|--------|--------|--------|


[Verse] 1x (all tremolo picking)

G|--------|--------|--------|----4-4-|--------|--------|--------|--------|
D|--------|----7-7-|4-4-4-4-|4-4-----|5-5-5-5-|5-5-7-7-|--------|----7-7-|
A|5-5-5-5-|5-5-----|--------|--------|--------|--------|5-5-5-5-|5-5-----|      2x
E|--------|--------|--------|--------|--------|--------|--------|--------|



[Chorus] 2x (all tremolo picking)

G|--------|--------|--------|----4-4-|--------|--------|--------|--------|
D|--------|----7-7-|4-4-4-4-|4-4-----|5-5-5-5-|5-5-7-7-|--------|----7-7-|
A|5-5-5-5-|5-5-----|--------|--------|--------|--------|5-5-5-5-|5-5-----|      
E|--------|--------|--------|--------|--------|--------|--------|--------|


G|--------|--------|--------|--------|--------|--------|--------|--------|
D|9-9-9-9-|9-9-9-9-|7-7-7-7-|7-7-7-7-|5-5-5-5-|5-5-5-5-|--------|----7-7-|
A|--------|--------|--------|--------|--------|--------|5-5-5-5-|5-5-----|      
E|--------|--------|--------|--------|--------|--------|--------|--------|
 


[Outro] (all tremolo except marked ones (*))

G|--------|--------|--------|----4-4-|--------|--------|--------|--------|
D|--------|----7-7-|4-4-4-4-|4-4-----|5-5-5-5-|5-5-7-7-|--------|----7-7-|
A|5-5-5-5-|5-5-----|--------|--------|--------|--------|5-5-5-5-|5-5-----|      
E|--------|--------|--------|--------|--------|--------|--------|--------|
               * *               * *               * *               * *

G|--------|--------|--------|--------|--------|--------|--------|--------|
D|9-9-9-9-|9-9-9-9-|7-7-7-7-|7-7-7-7-|5-5-5-5-|5-5-5-5-|--------|----7-7-|
A|--------|--------|--------|--------|--------|--------|5-5-5-5-|5-5-----|      
E|--------|--------|--------|--------|--------|--------|--------|--------|
                                                                        

G|--------|--------|--------|----4-4-|--------|--------|--------|--------|
D|--------|----7-7-|4-4-4-4-|4-4-----|5-5-5-5-|5-5-7-7-|--------|----7-7-|
A|5-5-5-5-|5-5-----|--------|--------|--------|--------|5-5-5-5-|5-5-----|      
E|--------|--------|--------|--------|--------|--------|--------|--------|
               * *               * *               * *               * *

G|--------|--------|--------|--------|--------|--------|--------|--------|
D|9-9-9-9-|9-9-9-9-|7-7-7-7-|7-7-7-7-|5-5-5-5-|5-5-5-5-|--------|----7-7-|
A|--------|--------|--------|--------|--------|--------|5-5-5-5-|5-5-----|      
E|--------|--------|--------|--------|--------|--------|--------|--------|
                                                                     * *

G|--------|--------|--------|----4-4-|--------|--------|7-6-4---|--------|--------|
D|--------|----7-7-|4-4-4-4-|4-4-----|5-5-5-5-|5-5-7-7-|------7-|5-4-----|--------|
A|5-5-5-5-|5-5-----|--------|--------|--------|--------|--------|----7-5-|5       |      
E|--------|--------|--------|--------|--------|--------|--------|--------|--------|
               * *               * *               * *                    *


Suggest correction
Give kudos to tab author, rate the tab!
1 2 3 4 5
comments
print report bad tab
1 comment total.
0 reply
pavelardo 839 Oct 29, 2016 01:15 PM

at the end of verse, after bridge, there is something like that :
7-6-4---|--------|--------|
------7-|5-4-----|--------|
--------|----7-5-|5-------|

guest
You may want to rate the tab now too:
select rating
Wanna post a correction for this tab? Suggest correction