Oops, an error
Loading. Please wait.

Pickup Truck tab

version 1
version 1

Whole song

20,013 views 12 this week
no commentswrite comment
1 2 3 4 5
x 6
add to favorites
×
Save as Personal and add changes to this tab that will be seen only by you. Learn more ›
×
You can save this tab as Personal to edit and correct it or add notes. All changes will be seen only by you. Learn more »
launch autoscroll
font size
0
reset
how to read this tab
guitar tuner
edit
Autoscroll
slow
fast
+/-
esc
set tempo
stop
Author
-----------------------------------------------------------------
PICKUP TRUCK - Kings of Leon
-----------------------------------------------------------------
Tabbed by:jamesmckee92
Date tabbed out: 23rd August 2010
Tuning:standard
THIS SONG IS PROPERTY OF KINGS OF LEON AND ALL RESPECTIVE LABELS WHO OWN THE
COPYRIGHT TO THIS, AS YET UNRELEASED, SONG FROM THE FORTHCOMING ALBUM "COME AROUND
SUNDOWN" WHICH IS RELEASED OCTOBER 18TH 2010
Intro:

Lots of reverb-y effect on lead guitar, this is played a total of 7 maybe 8 times before 
starts.

e|---------------------------------------------------------------|
B|--17\13~~~~~~~~------------------------------------------------|
G|---------------------------------------------------------------|
D|---------------------------------------------------------------|
A|---------------------------------------------------------------|
E|---------------------------------------------------------------|

Matthew (lead) plays this twice before bass comes in, then a further 4 times before 
starts playing.

Caleb plays  two chords throughout
e|-0----------0------------------| These chords are arpeggiated
B|-1----------1------------------| Listen to the song for the pattern
G|-0----------2------------------|
D|-2----------3------------------|
A|-3----------3------------------|
E|-3----------0------------------|

RIFF:
lead guitar - matthew
e|---------------------------------------------------------------|
B|---------------------------------------------------------------|
G|--10~--9--------------------------9----------------------------|
D|----------------12--10~~-----------------10~~------------------|
A|-----------10--------------------------------------------------|
E|---------------------------------------------------------------|

Bass: (repeated throughout song)
G|---------------------------------------------------------------|
D|---------------------------------------------------------------|
A|---------------------------------------------------------------|
E|-88888-10-5-3h55555p3-0h1--------------------------------------|

Thanks to muckymouse for helping with the bass in this!

Lyrics:

1st verse
Walk you home to see

Where your living around

And i know this place

Pour yourself on me and you know i'm the one

That you wont forget


And in your dear mind i see something (aint) right

And i know your weak

When he comes around i see your fixing a shot and my faith wont keep


Chorus
Everything's so emotional

I didnt think it'd get physical

But when you pull in and rev it up

I see you crawl outta pickup truck

And in the moonlight i run him down

All kickin', screamin', and rollin' around

A little piece of a bloody tooth

Just so you know i'll be thinkin of you

Just so you know ohhhhhh

RIFF

2nd Verse
Trim and misery

And as cold as a hole,

I hurt your bones and skin,

Crackling wood dont bite,

And my eyes swolled up now,

I can see the light

Chorus x2

Just so you know ohhhh
Just so you know ohhhh

END

            
            
Suggest correction
Creating personal tab
Creating personal tab
You can edit any tab online and save it as your Personal.

You can edit, replace or remove any tab part or add personal notes – all changes will be seen only by you.

Personal tabs can be accessed anytime from any device, even offline.
Learn more »
comments
print report bad tab
guest
You may want to rate the tab now too:
select rating
Wanna post a correction for this tab? Suggest correction