Oops, an error
Loading. Please wait.
We have an official Pyro tab made by UG professional guitarists. Check out the tab »
×
31,941 views 12 this week
4 commentsread comments
1 2 3 4 5
x 9
add to favorites
×
Save as Personal and add changes to this tab that will be seen only by you. Learn more ›
×
You can save this tab as Personal to edit and correct it or add notes. All changes will be seen only by you. Learn more »
launch autoscroll
font size
0
reset
guitar tuner
edit
Autoscroll
slow
fast
+/-
esc
set tempo
stop
Difficulty

-------------------------------------------------------------------------------
			     Pyro - Kings of Leon
-------------------------------------------------------------------------------

Tabbed By : Alec-Ross
e-mail: alecross.bower@hotmail.com

Tuning: Standard

Intro - Bass plays and holds one note on the third bar

G|---------------------------------------------------------------------------|
D|---------------------------------------------------------------------------|
A|---------------------------------------------------------------------------|
E|-----------------------------------------9---------------------------------|


G|---------------------------------------------------------------------------|
D|---------------------------------------------------------------------------|
A|---------------------------------------------------------------------------|
E|------9----------------5----------------12---------------------------------|

G|---------------------------------------------------------------------------|
D|---------------------------------------------------------------------------|
A|---------------------------------------------------------------------------|
E|------9----------------5----------------12---------------------------------|

Verse

G|---------------------------------------------------------------------------|
D|---------------------------------------------------------------------------|
A|---------------------------------------------------------------------------|
E|------9----------------5----------------12---------------------------------|

G|---------------------------------------------------------------------------|
D|---------------------------------------------------------------------------|
A|---------------------------------------------------------------------------|
E|------9----------------5----------------12---------------------------------|

G|---------------------------------------------------------------------------|
D|---------------------------------------------------------------------------|
A|-------------------------------------------------------12-11-9-------------|
E|------9----------------5----------------12---------------------------------|

G|---------------------------------------------------------------------------|
D|---------------------------------------------------------------------------|
A|---------------------------------------------------------------------------|
E|------9----------------5----------------12---------------------------------|


Chorus

G|---------------------------------------------------------------------------|
D|---------------------------------------------------------------------------|
A|---------------------------------------------------------------------------|
E|--16-9--------------16-5-------------16-12--------------16-12--------------|

G|---------------------------------------------------------------------------|
D|---------------------------------------------------------------------------|
A|---------------------------------------------------------------------------|
E|--16-9--------------16-5-------------16-12--------------16-12---------14\--|

Verse 2

G|---------------------------------------------------------------------------|
D|---------------------------------------------------------------------------|
A|---------------------------------------------------------------------------|
E|-----9-----------------5----------------12---------------------------------|

G|---------------------------------------------------------------------------|
D|---------------------------------------------------------------------------|
A|---------------------------------------------------------------------------|
E|-----9-----------------5----------------12---------------------------------|

G|---------------------------------------------------------------------------|
D|-----11--------------------------------------------------------------------|
A|-----------------------12------------------------------12-11-9-------------|
E|----------------------------------------12---------------------------------|

G|---------------------------------------------------------------------------|
D|---------------------------------------------------------------------------|
A|---------------------------------------------------------------------------|
E|-----9-----------------5----------------12---------------------------------|

Chorus x2

Bridge

G|---------------------------------------------------------------------------|
D|---------------------------------------------------2/4--6------------------|
A|----------------------------------------------------------4----------------|
E|-----5-----------------4----------------2----------------------------------|

G|---------------------------------------------------------------------------|
D|---------------------------------------------------------------------------|
A|---------------------------------------------------------------------------|
E|-----5-----------------4----------------14---------------------------------|

Pre-Last Chorus (Can you feel it?)
Strum it [16ths]

G|---------------------------------------------------------------------------|
D|-----11----------------7----------------14---------------------------------|
A|---------------------------------------------------------------------------|
E|---------------------------------------------------------------------------|

G|---------------------------------------------------------------------------|
D|-----11----------------7----------------14(hold note)----------------------|
A|---------------------------------------------------------------------------|
E|---------------------------------------------------------------------------|

Drums
Keep strumming 16ths

G|---------------------------------------------------------------------------|
D|-----11----------------7----------------14---------------------------------|
A|---------------------------------------------------------------------------|
E|---------------------------------------------------------------------------|


G|---------------------------------------------------------------------------|
D|-----11----------------7----------------14---------------------------------|
A|---------------------------------------------------------------------------|
E|---------------------------------------------------------------------------|

G|---------------------------------------------------------------------------|
D|---------------------------------------------------------------------------|
A|-----------------------12--------------------------------------------------|
E|----/9-----------------------------------12--------------------------------|

G|---------------------------------------------------------------------------|
D|---------------------------------------------------------------------------|
A|-----------------------12--------------------------------------------------|
E|-----9-----------------------------------12--------------------------------|

G|---------------------------------------------------------------------------|
D|---------------------------------------------------------------------------|
A|-----------------------12--------------------------------------------------|
E|-----9-----------------------------------12--------------------------------|

G|---------------------------------------------------------------------------|
D|---------------------------------------------------------------------------|
A|-----------------------12--------------------------------------------------|
E|-----9------------------------------------9(hold)-------------9(hold)------|

G|---------------------------------------------------------------------------|
D|---------------------------------------------------------------------------|
A|---------------------------------------------------------------------------|
E|-----9(hold)------------------9(hold)--------------------------------------|

Nice and easy - Enjoy!

Please get in touch if you spot/hear any mistakes or parts missed out.
For instance, I'm not too sure on the fill in the second verse, any ideas?

| /  slide up
| \  slide down
| h  hammer-on
| p  pull-off
| ~  vibrato
| +  harmonic
| x  Mute note
===============================================================================
Suggest correction
Creating personal tab
Creating personal tab
You can edit any tab online and save it as your Personal.

You can edit, replace or remove any tab part or add personal notes – all changes will be seen only by you.

Personal tabs can be accessed anytime from any device, even offline.
Learn more »
comments
print report bad tab
4 comments total. Showing first comments.
0 reply
False_God 859 Oct 29, 2010 07:24 AM

Notes are spot on from what I can hear.

0 reply
Cal! 511 Nov 10, 2010 03:26 AM

Im pretty sure the second verse fill is:

G|------------------------------------------------------------|
D|------------------------------------------------------------|
A|--11----------------12--------------------------12>14-12-11-|
E|-------------------------------------12---------------------|

And i think the song starts with the bass just playing open E a few times instead of the 9th fret, but apart from that, good job.

0 reply
Big-T Bassist 40 Apr 24, 2011 01:32 PM

During the Pre-Last Chorus I'm fairly sure the bass goes like:

G|----9---------6----------13--------------------|
D|-11---(x6)--7---(x6)--14----(x12)--------------|
A|-----------------------------------------------|
E|-----------------------------------------------|

G|----9---------6----------/13-------------------|
D|-11---(x6)--7---(x6)---------------------------|
A|-----------------------------------------------|
E|-----------------------------------------------|

He puts quite a lot of effect (I think reverb) on it so it sounds like a guitar.

guest
Wanna post a correction for this tab? Suggest correction