Oops, an error
Loading. Please wait.
We have an official Pyro tab made by UG professional guitarists. Check out the tab »
×
1,060 views 9 this week
no commentswrite comment
1 2 3 4 5
2 more votes to show rating
add to favorites
×
Save as Personal and add changes to this tab that will be seen only by you. Learn more ›
×
You can save this tab as Personal to edit and correct it or add notes. All changes will be seen only by you. Learn more »
launch autoscroll
font size
0
reset
guitar tuner
edit
Autoscroll
slow
fast
+/-
esc
set tempo
stop
Author
Difficulty
-------------------------------------------------------------------------------
			     SONG NAME - Band Name
-------------------------------------------------------------------------------

Tabbed By : Jake Brown
e-mail: jdb5397@psu.edu

Every tab on here is wrong...sorry, but it's true.
You can use different variations for notes, such as using the 11th fret on the A string 
instead of the 16th fret on the E (I'm not sure what Jared does)...but this is pretty 
darn accurate, if not completely correct.
Tuning: EADG

pre-Intro: hit the 0 twice during the very soft part (listen for it)

Intro (:16)
G|--------------------------------------------------------------------------|
D|--------------------------------------------------------------------------|
A|--------------------------------------------------------------------------|
E|--9--9-9-------5--5-5------12--12-12----12--12-12-------------------------|

(:32)
G|--------------------------------------------------------------------------|
D|--------------------------------------------------------------------------|
A|--------------------------------------------------------------------------|
E|--9-----------5------------0-------------9-----------5------------0-------|

(:49)
G|--------------------------------------------------------------------------|
D|--------------------------------------------------------------------------|
A|--11----------12-----------------------12--11--9--------------------------|
E|-------------------------12-------------------------9--------5-------0----|

(1:06) (use 16 on the E or 11 on the A...doesnt matter..and slide kinda slowly--| listen for it)
G|------------------------------------------------------------------------------|
D|------------------------------------------------------------------------------|
A|------------------------------------------------------------------------------|
E|--16\9-9--16\5-5--16\12-12--16\12-12--16\9-9--16\5-5--16\12-12--16\12-12------|

(1:22)
G|--------------------------------------------------------------------------|
D|--------------------------------------------------------------------------|
A|--------------------------------------------------------------------------|
E|--16\9---5-----0------------9-------5--------0----------------------------|

(1:38)
G|--------------------------------------------------------------------------|
D|--------------------------------------------------------------------------|
A|---11-------12-------------------12---11---9------------------------------|
E|--------------------12----------------------------9------5------0---------|

(1:54)
G|--------------------------------------------------------------------------|
D|--------------------------------------------------------------------------|
A|--------------------------------------------------------------------------|
E|---16\9-9--16\5-5--16\12-12--16\12-12---16\9-9-16\5-5--16\12-12--16\12-12-|

(2:10)
G|--------------------------------------------------------------------------|
D|--------------------------------------------------------------------------|
A|--------------------------------------------------------------------------|
E|---16\9-9--16\5-5--16\12-12--16\12-12---16\9-9-16\5-5--16\12-12--16\12-12-|

(2:27) (not 100% sure on the little fill he throws in, but this sounds very accurate)
G|--------------------------------------------------------------------------|
D|-------------------2/4--4----6--------------------------------------------|
A|----------------------------------4---------------------------------------|
E|--16\5--4--2-----------------------------5--4-----\14---------------------|
                                                     ^^just go right up to 14 and slowly 
slide down...once again, listen for it.

(2:44) (when you get to the 18, bounce the notes..what I mean by that is to hit the note 
and quickly let go and then hit the next one, etc etc
G|--------------------------------------------------------------------------|
D|---14(hold note)----11(hold note)---/18-18-18-18-18-18-18-18-18-18-18-18--|
A|--------------------------------------------------------------------------|
E|--------------------------------------------------------------------------|

(2:53)
G|--------------------------------------------------------------------------|
D|--------------------------------------------------------------------------|
A|--------------------------------------------------------------------------|
E|---14(hold note)----11(hold note)--/18(hold note)-------------------------|

(3:00)
G|--------------------------------------------------------------------------|
D|--------------------------------------------------------------------------|
A|--------------------------------------------------------------------------|
E|---9-9-9-9-9-9-9-9--5-5-5-5-5-5-5-5---12(x16)-----------------------------|

(3:09)
G|----------------------------------------------------------------------------|
D|----------------------------------------------------------------------------|
A|----------------------------------------------------------------------------|
E|9-9-9-9-9-9-9-9--5-5-5-5-5-5-5-5--12(x14)-\9-9/16(x8)--17(x8)--12(x16-------|
                                            *this has like a slingshot feel to it 
because you're playing so fast- it goes from 12 and dips down to 9 for the last 4 notes, then 
shoots up to 16 for the final chorus part

(3:25)
G|--------------------------------------------------------------------------|
D|--------------------------------------------------------------------------|
A|--------------------------------------------------------------------------|
E|-16(x8)--17(x8)--12(x16)--------------------------------------------------|

(3:33)
G|--------------------------------------------------------------------------|
D|--------------------------------------------------------------------------|
A|--------------------------------------------------------------------------|
E|-16(x8)--17(x8)--12(x16)--------------------------------------------------|

(3:42)
G|--------------------------------------------------------------------------|
D|--------------------------------------------------------------------------|
A|--------------------------------------------------------------------------|
E|-16(x8)--17(x8)--9(hold note)-------9(hold)--------9(hold)----------0-----|

This is a bit messy, but you should be able to figure it out.. I hope

| /  slide up
| \  slide down
| h  hammer-on
| p  pull-off
| ~  vibrato
| +  harmonic
| x  Mute note

            
            
Suggest correction
Creating personal tab
Creating personal tab
You can edit any tab online and save it as your Personal.

You can edit, replace or remove any tab part or add personal notes – all changes will be seen only by you.

Personal tabs can be accessed anytime from any device, even offline.
Learn more »
Give kudos to tab author, rate the tab!
1 2 3 4 5
comments
print report bad tab
guest
You may want to rate the tab now too:
select rating
Wanna post a correction for this tab? Suggest correction