Oops, an error
Loading. Please wait.

Ragoo tab

version 1
version 1

Whole song

Interactive

27,516 views 18 this week
7 commentsread comments
1 2 3 4 5
1 last vote to show rating
add to favorites
×
Save as Personal and add changes to this tab that will be seen only by you. Learn more ›
×
You can save this tab as Personal to edit and correct it or add notes. All changes will be seen only by you. Learn more »
launch autoscroll
font size
0
reset
how to read this tab
guitar tuner
edit
Autoscroll
slow
fast
+/-
esc
set tempo
stop
Author
Difficulty
Kings Of Leon - Ragoo - Guitar
Normal Tuning

Guitar 1 - Intro
   pm   ........................................pm
e--------------------------------------------------------|
B---7----7----7----7----7----3----3----3----3----3/2/0---|
G--------------------------------------------------------|
D--4----4----4----4----4----4----4----4----4----4--------|  x5
A-5----5----5----5----5----5----5----5----5----5---------|
E--------------------------------------------------------|

Guitar 2

e---------------------3----|
B---------------------3----|
G-11-11-11-11-7--7----4----|   x 14 (i think)
D-0--0--0--0--0--0----5----|
A-9--9--9--9--9--9----5----|
E-10-10-10-10-10-10---3/10-|

Guitar 1

e-7----------------7---------|
B-5-7-7b(8)b7------5-7-7b8p7-|
G----------------------------| + some variations
D----------------------------|
A----------------------------|
E----------------------------|

Chorus
Guitar 2                 Guitar 1
                                       /\/\
e-7-----3--5-             ------2-------5--|
B-7-----3--5-             -0-2-3--0-2-3----|
G-8-----4--6-   x 4       -----------------|  x4
D-9-----5--7-             -----------------|
A-9-----5--7-             -----------------|
E-7-----3--5-             -----------------|

repeat of other sections:

Verse
Chorus
Solo

e---------------13---13---13---13---13---13-----13-----------13------|
B------14--14-----14---14---14---14---14---14---14-1414-1414-14-14---|
G-13-13--13--13-----13---13---13---13---13---13-13-------------------|
D-----------------------------------------------15-------------------|
A--------------------------------------------------------------------|
E--------------------------------------------------------------------|
                                \/\/\/
-13-----------------13-------------------------------------------------|
---1414-1414-12-----14-x-14-x-14----------14---------------------------|
---------------14---13-x-13-x-13----------13-x-13-x-13-----------------|
--------------------15-----------15b16----15-x-15-x-15--16-15-13h15-12-|
-----------------------------------------------------------------------|
-----------------------------------------------------------------------|
-----------------------------------------------------------------------|

after creating this tab i realised the actual version is probably played around the D 
but my way sounds good.
Enjoy all comments welcome 

            
            
Suggest correction
Creating personal tab
Creating personal tab
You can edit any tab online and save it as your Personal.

You can edit, replace or remove any tab part or add personal notes – all changes will be seen only by you.

Personal tabs can be accessed anytime from any device, even offline.
Learn more »
Give kudos to tab author, rate the tab!
1 2 3 4 5
comments
print report bad tab
7 comments total. Showing first comments.
+1 reply
hard to explain 30 Apr 16, 2007 07:53 AM

this isnt accurate in my opininon

0 reply
Luke-is-deadly 20 Apr 17, 2007 07:17 AM

it sounds very strange , i think you may have got it right , but its not at all in the right key? I dont know it just doesnt work

0 reply
CubeShindig 15 Apr 17, 2007 01:05 PM

Heres a better intro tab. how could that one possibly have ever been right?

Guitar 1 - Intro
pm ........................................pm
e--------------------------------------------------------|
B---7----7----7----7----7----3----3----3----3----3/2/0---|
G--------------------------------------------------------|
D--4----4----4----4----4----4----4----4----4----4--------| x5
A-5----5----5----5----5----2----2----2----2----2---------|
E--------------------------------------------------------|

guest
You may want to rate the tab now too:
select rating
Wanna post a correction for this tab? Suggest correction