Oops, an error
Loading. Please wait.

Ragoo bass

version 2
version 2

Whole song

Interactive

3,789 views 1 this week
1 commentread comment
1 2 3 4 5
x 5
add to favorites
×
Save as Personal and add changes to this tab that will be seen only by you. Learn more ›
×
You can save this tab as Personal to edit and correct it or add notes. All changes will be seen only by you. Learn more »
launch autoscroll
font size
0
reset
guitar tuner
edit
Autoscroll
slow
fast
+/-
esc
set tempo
stop
Author
Difficulty
intermediate
                 p=pull off                       h=hammer on
                                  Intro

     G --------11-----------|------------------|--------11--11h12p11---|
     D ----12------12-------|------------------|----12-----------------|
     A ----------------12---|----9--12---------|-----------------------|
     E 10-------------------|10---------9--7---|10---------------------|

     G ------------------|
     D ------------------|
     A ----9--12---------|
     E 10---------9--7---|

                               Verse

     G --------------------|----------------|
     D --------------------|----------------|    x4
     A --------------------|----------------|
     E 10--10-1010--------7|7--7-77---------|

                     Then you play the first two bars of the intro
                     riff twice.We'll call this bridge 2.

                     After that you play the Verse bit again.Then
                     it goes into the....

                               Bridge

     G -------------------|----------------|
     D -------------------|----------------|      x3
     A -------------------|----7-------9---|
     E 10---10-7-10-7-5-7-|5-5---5-7-7---7-|

                       After this you play bridge 2 into the verse.
                       Then the bridge and after that bridge 2. Then
                       you play the intro riff, then bridge 2, then
                       the intro riff, then another bridge 2 and the
                       song fades out on a D.

            
            
Suggest correction
Creating personal tab
Creating personal tab
You can edit any tab online and save it as your Personal.

You can edit, replace or remove any tab part or add personal notes – all changes will be seen only by you.

Personal tabs can be accessed anytime from any device, even offline.
Learn more »
comments
print report bad tab
1 comment total.
0 reply
mozzay 194 Aug 07, 2008 04:29 PM

not good, the first tab is much beter

guest
You may want to rate the tab now too:
select rating
Wanna post a correction for this tab? Suggest correction