Oops, an error
Loading. Please wait.

Ragoo tab

version 2
version 2

Whole song

Interactive

19,096 views 3 this week
1 commentread comment
1 2 3 4 5
x 4
add to favorites
×
Save as Personal and add changes to this tab that will be seen only by you. Learn more ›
×
You can save this tab as Personal to edit and correct it or add notes. All changes will be seen only by you. Learn more »
launch autoscroll
font size
0
reset
how to read this tab
guitar tuner
edit
Autoscroll
slow
fast
+/-
esc
set tempo
stop
Difficulty
Guitar 1, CORRECT intro, I don't know what the other people heard...
   Fast PM
e-------------------------------------------------------------|
B----7----7----7---7---7--------------------------------------|
G-----7----7----7---7-------7----7---7h6---6h4----------------|
D-00----0----0---0---0---00--00---00----00-----0000-----------|
A-------------------------------------------------------------|
E-------------------------------------------------------------|

Guitar 2

e----------------------------|
B----------------------------|
G-11-11-11-11-7--7-----------|
D-0--0--0--0--0--0----5------|
A-9--9--9--9--9--9----5------|
E-10-10-10-10-10-10---3/10---|

Guitar 1
He really just plays with that and bends it up.
e-------------------------------|
B--7----------------------------|
G--7----------------------------|
D--0----------------------------|
A-------------------------------|
E-------------------------------|

Chorus
Guitar 2                 Guitar 1

e--------             ------2-------5------|
B---------             -0-2-3--0-2-3-------|
G---------              -------------------|
D-9---5--7-             -------------------|
A-9---5--7-             -------------------|
E-7---3--5-             -------------------|

Honestly I didn't feel like tabbing out the whole solo, but it starts from here and just goes on...
e-------14--------------|  Then just play around with it from there.
B----15-----x4----------|
G-12--------------------|
D-----------------------|
A-----------------------|
E-----------------------|
Suggest correction
Creating personal tab
Creating personal tab
You can edit any tab online and save it as your Personal.

You can edit, replace or remove any tab part or add personal notes – all changes will be seen only by you.

Personal tabs can be accessed anytime from any device, even offline.
Learn more »
comments
print report bad tab
1 comment total.
0 reply
wmc607 31 Nov 08, 2010 10:13 AM

on the right track, but you're leaving out a lot of notes

am 100% positive this is 100% correct. can't get any better than that

e-------------------------------------------------|
B---7----7----7---7---7----3---3---3p2---2p0------|
G----7----7----7---7------4-4---4-------2-----0---|
D-0----0----0---0---0----0---0---0-----0-----0----|
A-------------------------------------------------|
E-------------------------------------------------|
palm mute everything

guest
Wanna post a correction for this tab? Suggest correction