Oops, an error
Loading. Please wait.

Revelry Tab

version 1
version 1

Whole song

Interactive

191,292 views 36 this week
12 commentsread comments
1 2 3 4 5
x 42
add to favorites
launch autoscroll
font size
0
reset
how to read this tab
guitar tuner
×
Best way to learn
"Revelry"
Autoscroll
slow
fast
+/-
esc
set tempo
stop
[Intro/Verses 1 & 2] 
(Played single strum, lightly)
    What a night...     ...Im a dancin' machine
e|-------------------------------------------|
B|-------------------------------------------|
G|-------------------------------------------|
D|------(2)-------------------------(4)------|
A|-------2---------------------------4-------|
E|-------0---------------------------0-------|

    With the fire in my...   ...taste of kerosene
e|--------------------------------------------|
B|--------------------------------------------|
G|--------------------------------------------|
D|-------(6)-------------------------(4)------|
A|--------6---------------------------4-------|  (Repeat 5x) to Chorus
E|--------0---------------------------0-------|  Thru "Woo Hoos" and V2

[Chorus]
    See the time we shared...   All the while I was dreamin of revelry-
           A                   A                   B                 E
e|-------5-------------------5-------------------7-7-7-7-7-7-7-7---0--|
B|-------5-------------------5-------------------7-7-7-7-7-7-7-7---0--|
G|-------6-------------------6-------------------8-8-8-8-8-8-8-8---1--|
D|-------7-------------------7-------------------9-9-9-9-9-9-7-7---2--|
A|-------7-------------------7-------------------9-9-9-9-9-9-7-7---2--|
E|-------5-------------------5-------------------7-7-7-7-7-7-7-7---0--|

       E                F#m11/C#      G#m7b13/D#     F#m11/C#
e|---0-0-0-0-0-0-0---0-0-0-0-0-0---0-0-0-0-0-0---0-0-0-0-0-0-----|
B|---0-0-0-0-0-0-0---0-0-0-0-0-0---0-0-0-0-0-0---0-0-0-0-0-0-----|
G|---1-1-1-1-1-1-1---2-2-2-2-2-2---4-4-4-4-4-4---2-2-2-2-2-2-----|
D|---2-2-2-2-2-2-2---4-4-4-4-4-4---6-6-6-6-6-6---4-4-4-4-4-4-----|
A|---2-2-2-2-2-2-2---4-4-4-4-4-4---6-6-6-6-6-6---4-4-4-4-4-4-----|
E|---0-0-0-0-0-0-0---0-0-0-0-0-0---0-0-0-0-0-0---0-0-0-0-0-0-----| Repeat

[Bridge]
And I told myself...  rained so hard...    (and so on thru to outro)

     E                F#m11/C#      G#m7b13/D#     F#m11/C#
e|---0-0-0-0-0-0-0---0-0-0-0-0-0----0-0-0-0-0-0---0-0-0-0-0-0-----|
B|---0-0-0-0-0-0-0---0-0-0-0-0-0----0-0-0-0-0-0---0-0-0-0-0-0-----|
G|---1-1-1-1-1-1-1---2-2-2-2-2-2----4-4-4-4-4-4---2-2-2-2-2-2-----|
D|---2-2-2-2-2-2-2---4-4-4-4-4-4----6-6-6-6-6-6---4-4-4-4-4-4-----|
A|---2-2-2-2-2-2-2---4-4-4-4-4-4----6-6-6-6-6-6---4-4-4-4-4-4-----|
E|---0-0-0-0-0-0-0---0-0-0-0-0-0----0-0-0-0-0-0---0-0-0-0-0-0-----|

[Verse 1]
What a night for a dance, you know im a dancing machine
with the fire in my bones
and the sweet taste of kerosene
i get lost in the night so high dont wana come down
to face the loss of the good thing that i have found
woo hoo hoooo
woo hoo hoooo

[Verse 2]
In the dark of the night i hear you callin my name
with the hardest of hearts, i still feel full of pain
so i drink and i smoke and i ask you if your ever around even though it was me who drove 
right into the ground

[Chorus]
See the time we shared it was precious to me
but all the while i was dreamin of revelry

[Verse 3]
Gonna run baby run like a stream down a mountainside
with the wind in my back i wont ever even bat an eye
just know it was you all along that had a hold of my heart
but the demon in me was a best friend from the start

[Chorus]
So the time we shared it was precious to me
all the while i was dreamin of revelry
dreamin of revelry

[Bridge]
And i told myself oh the way you go it rained so hard it felt like snow, 
came tumbling down on me
in the back of the woods it was dark as night
palest pale of the old moonlight
everythings felt so empty

[Outro] 
Dreamin of revelry
Dreamin of revelry
Dreamin of revelry
Dreamin of revelry


************************************

| (n)  Ghost note

************************************
Suggest correction
comments
print report bad tab
12 comments total. Showing first comments.
+2 reply
CrazyYaz 725 Sep 15, 2008 11:25 AM

Well, what can I say. It is accurate. Good shtuff =] 5*

+1 reply
antroolez 920 Sep 23, 2008 03:11 AM

hmm same chords as joes head and day old blues i see

+1 reply
bronsonhelm 60 Sep 24, 2008 07:19 AM

on the money antrollez

guest
You may want to rate the tab now too:
select rating
Wanna post a correction for this tab? Suggest correction