Oops, an error
Loading. Please wait.

Reverend Bass Tab

253 views 48 this week
no commentswrite comment
1 2 3 4 5
1 last vote to show rating
add to favorites
launch autoscroll
font size
0
reset
guitar tuner
Autoscroll
slow
fast
+/-
esc
set tempo
stop
Help us to improve Ultimate-Guitar.com Take our survey!
×
Author
Difficulty
intermediate
[Intro]:[0:08]
G|---------------------------------------------------------------------------|
D|---------------------------------------------------------------------------|
A|---------------------------------------------------------------------------|
E|-13-13-13-13-13-13-13-13-13-13-13-13-13-13-13-13-8-8-8-8-8-8-8-8\----------|


[Verse]

G|---------------------------------------------------------------------------------|
D|---------------------------------------------------------------------------------|
A|---------------------------------------------------------------------------------|
E|-11-11-11-11-11-11-11-11-13-13-13-13-13-13-13-13-8-8-8-8-8-8-8-8-8-8-8-8-8-8-8-8-| 

G|---------------------------------------------------------------------------------|
D|---------------------------------------------------------------------------------|
A|---------------------------------------------------------------------------------|
E|-11-11-11-11-11-11-11-11-13-13-13-13-13-13-13-13-8-8-8-8-8-8-8-8-8-8-8-8-8-8-8-8-|

G|---------------------------------------------------------------------------------|
D|---------------------------------------------------------------------------------|
A|---------------------------------------------------------------------------------|
E|-11-11-11-11-11-11-11-11-13-13-13-13-13-13-13-13-8-8-8-8-8-8-8-8-8-8-8-8-8-8-8-8-|

G|-----------------------------------------------------------------------------------------|
D|-----------------------------------------------------------------------------------------|
A|-----------------------------------------------------------------------------------------|
E|-11-11-11-11-11-11-11-11-13-13-13-13-13-13-13-13-6-6-6-6-6-6-6-6-11-11-11-11-10-10-10-10-|


[Pre-Chorus]
G|---------------------------------------------------------------------------------|
D|---------------------------------------------------------------------------------|
A|---------------------------------------------------------------------------------|
E|-8-8-8-8-8-8-8-8-13-13-13-13-13-13-13-13-6-6-6-6-8-8-8-8-10-10-10-10-13-13-13-13-|

[Chorus]

G|---------------------------------------------------------------------------|
D|---------------------------------------------------------------------------|
A|---------------------------------------------------------------------------|
E|-11-11-11-11-11-11-13-13-13-13-13-13-8-8-8-8-8-8-6-6-6-6-6-6---------------|

G|---------------------------------------------------------------------------|
D|---------------------------------------------------------------------------|
A|---------------------------------------------------------------------------|
E|-4-4-4-4-4-4-1-1-1-1-1-1-8-8-8-8-8-8-6-6-6-6-6-6---------------------------| (Repeat)


[Verse 2]
G|---------------------------------------------------------------------------------|
D|---------------------------------------------------------------------------------|
A|---------------------------------------------------------------------------------|
E|-11-11-11-11-11-11-11-11-13-13-13-13-13-13-13-13-8-8-8-8-8-8-8-8-8-8-8-8-8-8-8-8-|

G|------------------------------------------------------------------------------------|
D|--------------------------------------------------------------------------10-8------|
A|-------------------------------------------------------------------------------10-8-|
E|-11-11-11-11-11-11-11-11-13-13-13-13-13-13-13-13-8-8-8-8-8-8-8-8-8-8-8-8------------|

G|-----------------------------------------------------------------------------------------|
D|-----------------------------------------------------------------------------------------|
A|-----------------------------------------------------------------------------------------|
E|-11-11-11-11-11-11-11-11-13-13-13-13-13-13-13-13-6-6-6-6-6-6-6-6-11-11-11-11-10-10-10-10-|


[Pre-Chorus]
G|---------------------------------------------------------------------------------|
D|---------------------------------------------------------------------------------|
A|---------------------------------------------------------------------------------|
E|-8-8-8-8-8-8-8-8-13-13-13-13-13-13-13-13-6-6-6-6-8-8-8-8-10-10-10-10-13-13-13-13-|

[Chorus]

G|---------------------------------------------------------------------------|
D|---------------------------------------------------------------------------|
A|---------------------------------------------------------------------------|
E|-11-11-11-11-11-11-13-13-13-13-13-13-8-8-8-8-8-8-6-6-6-6-6-6---------------|

G|---------------------------------------------------------------------------|
D|---------------------------------------------------------------------------|
A|---------------------------------------------------------------------------|
E|-4-4-4-4-4-4-1-1-1-1-1-1-8-8-8-8-8-8-6-6-6-6-6-6---------------------------| (Repeat)


[Bridge]

G|---------------------------------------------------------------------------|
D|---------------------------------------------------------------------------|
A|---------13-13-13-13-15-15-15-15-------------------------------------------|
E|-11(x24)-------------------------13(x16)-8(x8)-8---------------------------|


[Chorus & Outro]

G|---------------------------------------------------------------------------|
D|---------------------------------------------------------------------------|
A|---------------------------------------------------------------------------|
E|-11-11-11-11-11-11-13-13-13-13-13-13-8-8-8-8-8-8-6-6-6-6-6-6---------------|

G|---------------------------------------------------------------------------|
D|---------------------------------------------------------------------------|
A|---------------------------------------------------------------------------|
E|-4-4-4-4-4-4-1-1-1-1-1-1-8-8-8-8-8-8-6-6-6-6-6-6---------------------------| (Repeat)


G|---------------------------------------------------------------------------|
D|---------------------------------------------------------------------------|
A|-13-15---------------------------------------------------------------------|
E|-------13------------------------------------------------------------------|



************************************

| >   Accented note
| /   Slide up
| \   Slide down

************************************
Suggest correction
Give kudos to tab author, rate the tab!
1 2 3 4 5
comments
print report bad tab
guest
You may want to rate the tab now too:
select rating
Wanna post a correction for this tab? Suggest correction