Oops, an error
Loading. Please wait.

Sex On Fire Tab

version 1
version 1
141,117 views 75 this week
2 commentsread comments
1 2 3 4 5
x 14
add to favorites
launch autoscroll
font size
0
reset
how to read this tab
guitar tuner
Autoscroll
slow
fast
+/-
esc
set tempo
stop
Help us to improve Ultimate-Guitar.com Take our survey!
×
Author
-------------------------------------------------------------------------------
                             'Sex On Fire' by Kings Of Leon
-------------------------------------------------------------------------------
Tabbed by:dez15
Email:vo_debra@hotmail.com

Tuning:Standard
Video of me playing it:http://www.youtube.com/watch?v=t6LXOMNkwg4

Intro
e|---------------------------------------------------------------------------|
B|---------------------------------------------------------------------------|
G|---------------------------------------------------------------------------|
D|--9-11-9-9-9-9---x4--------------------------------------------------------|
A|--7-7--7-7-7-7-------------------------------------------------------------|
E|---------------------------------------------------------------------------|

e|---------------------------------------------------------------------------|
B|---------------------------------------------------------------------------|
G|---------------------------------------------------------------------------|
D|--6-6-6-6-7-6-6-6-6-7-6-6-6-6-7--9-9-9-9-11-9-9-9-9-11-9-9-9-9-11----------|
A|--4-4-4-4-4-4-4-4-4-4-4-4-4-4-4--7-7-7-7-7--7-7-7-7-7--7-7-7-7-7-----------|
E|---------------------------------------------------------------------------|

e|---------------------------------------------------------------------------|
B|---------------------------------------------------------------------------|
G|---------------------------------------------------------------------------|
D|--6-6-6-6-7-6-6-6-6-7-6-6-6-6-7--------------------------------------------|
A|--4-4-4-4-4-4-4-4-4-4-4-4-4-4-4--------------------------------------------|
E|---------------------------------------------------------------------------|

Verse
e|---------------------------------------------------------------------------|
B|---------------------------------------------------------------------------|
G|---------------------------------------------------------------------------|
D|--9-9-9-9-11-9-9-9-9-11-9-9-9-9-11---6-6-6-6-7-6-6-6-6-7-6-6-6-6-7---------|
A|--7-7-7-7-7--7-7-7-7-7--7-7-7-7-7----4-4-4-4-4-4-4-4-4-4-4-4-4-4-4---------|
E|---------------------------------------------------------------------------|

e|---------------------------------------------------------------------------|
B|---------------------------------------------------------------------------|
G|---------------------------------------------------------------------------|
D|--9-9-9-9-11-9-9-9-9-11-9-9-9-9-11---6-6-6-6-7-6-6-6-6-7-6-6-6-6-7---------|
A|--7-7-7-7-7--7-7-7-7-7--7-7-7-7-7----4-4-4-4-4-4-4-4-4-4-4-4-4-4-4---------|
E|---------------------------------------------------------------------------|

Chorus
e|---------------------------------------------------------------------------|
B|---------------------------------------------------------------------------|
G|--9-9-9-9-9-9-9-9-9-9-9-9-9-9-9-/-13--6-6-6-6-6-6-6-2-2-2-2-2-2-2----------|
D|--9-9-9-9-9-9-9-9-9-9-9-9-9-9-9-/-13--6-6-6-6-6-6-6-2-2-2-2-2-2-2----------|
A|--7-7-7-7-7-7-7-7-7-7-7-7-7-7-7-/-11--4-4-4-4-4-4-4-0-0-0-0-0-0-0----------|
E|---------------------------------------------------------------------------|

Verse 2
e|---------------------------------------------------------------------------|
B|---------------------------------------------------------------------------|
G|---------------------------------------------------------------------------|
D|--9-9-9-9-11-9-9-9-9-11-9-9-9-9-11---6-6-6-6-7-6-6-6-6-7-6-6-6-6-7---------|
A|--7-7-7-7-7--7-7-7-7-7--7-7-7-7-7----4-4-4-4-4-4-4-4-4-4-4-4-4-4-4---------|
E|---------------------------------------------------------------------------|

e|---------------------------------------------------------------------------|
B|---------------------------------------------------------------------------|
G|---------------------------------------------------------------------------|
D|--9-9-9-9-11-9-9-9-9-11-9-9-9-9-11---6-6-6-6-7-6-6-6-6-7-6-6-6-6-7---------|
A|--7-7-7-7-7--7-7-7-7-7--7-7-7-7-7----4-4-4-4-4-4-4-4-4-4-4-4-4-4-4---------|
E|---------------------------------------------------------------------------|

Chorus 2
e|---------------------------------------------------------------------------|
B|---------------------------------------------------------------------------|
G|--9-9-9-9-9-9-9-9-9-9-9-9-9-9-9-/-13--6-6-6-6-6-6-6-2-2-2-2-2-2-2----------|
D|--9-9-9-9-9-9-9-9-9-9-9-9-9-9-9-/-13--6-6-6-6-6-6-6-2-2-2-2-2-2-2----------|
A|--7-7-7-7-7-7-7-7-7-7-7-7-7-7-7-/-11--4-4-4-4-4-4-4-0-0-0-0-0-0-0----------|
E|---------------------------------------------------------------------------|



| /  slide up
| \  slide down
| h  hammer-on
| p  pull-off
| ~  vibrato
| +  harmonic
| x  Mute note
===============================================================================
Suggest correction
comments
print report bad tab
2 comments total.
0 reply
KATIE DA KILLER 10 Apr 14, 2009 08:37 PM

i could not get this to work =(

-1 reply
Daviec 10 Aug 04, 2009 03:55 PM

Doesn't sound exactly like the way its played in the video. But all downstrokes and kinda quick and I could hear the tune.

guest
You may want to rate the tab now too:
select rating
Wanna post a correction for this tab? Suggest correction