Oops, an error
Loading. Please wait.

Sex On Fire Bass Tab

version 3
version 3
37,080 views 6 this week
1 commentread comment
1 2 3 4 5
accurate
x 5
add to favorites
launch autoscroll
font size
0
reset
guitar tuner
Autoscroll
slow
fast
+/-
esc
set tempo
stop
Help us to improve Ultimate-Guitar.com Take our survey!
×
Author
Difficulty
novice
This tab is tabbed by Sephorangelus, however I have listened to the song and noticed 
in the tab there were some mistakes, so I have edited the tab and hopefully corrected the 
that were off. Hopefully this tab is near enough 100% correct.

Kings of Leon - Sex On Fire
Tuning: EADG
Edited by ezzasharp666

Intro - (0.07)
G|-------------------------------------------------------------------------|
D|---------------------------6-6--------------------------6-6--------------|
A|---4-4\-/4-4---4-4---4-4---------7-7---7-7---7-7---7-7-------------------|
E|-------------------------------------------------------------------------|

G|-------------------------------------------------------------------------|
D|---------------------------6-6--------------------------6-6--------------|
A|---4-4---4-4---4-4---4-4---------7-7---7-7---7-7---7-7-------------------|
E|-------------------------------------------------------------------------|

1st Verse - (0.25)
G|-------------------------------------------------------------------------|
D|---------------------------6-6-------------------------------------------|
A|---4-4---4-4---4-4---4-4---------77777777777777777777777777777777--------|
E|-------------------------------------------------------------------------|

G|------------------------------------------|
D|------------------------------------------|
A|---44444444444444444444444444444-/111111--| <<< 11’s not 1’s
E|------------------------------------------|
Chorus - (0.51)
G|---------------------------------------------------------|
D|-----------------------------------------------9h11------|
A|---7777777777777-/111111----777777777777-/1111-----------|
E|---------------------------------------------------------|

G|----------------------------------------------------------|
D|----------------------------------------------------------|
A|---4444444444444444----0000000000000000-------------------|
E|----------------------------------------------------------|

2nd Verse - (1.03)
G|---------------------------------------------------------------|
D|--------------------------6-6----------------------------------|
A|---7-7---7-7---7-7---7-7-------4-4---4-4---4-4---4-4--11-11\---|
E|---------------------------------------------------------------|

G|------------------------------------------------------------------------------|
D|------------------------------------------------------------------------------|
A|---77777777777777777777777777777-/111111--4444444444444444--0000000000000000--|
E|------------------------------------------------------------------------------|

2nd Chorus - (1.28)
G|----------------------------------------------------------|
D|------------------------------------------------9h11------|
A|---7777777777777-/111111-----777777777777-/1111-----------|
E|----------------------------------------------------------|

G|----------------------------------------------------------|
D|----------------------------------------------------------|
A|---4444444444444444----0000000000000000-------------------|
E|----------------------------------------------------------|

G|----------------------------------------------------------|
D|------------------------------------------------9h11------|
A|---7777777777777-/111111-----777777777777-/1111-----------|
E|----------------------------------------------------------|

G|-------------------------------------------|
D|-------------------------------------------|
A|---4444444444444444------------------------|
E|---------------------5555555544455544------|

3rd Verse - (1.53)
G|---------------------------------------------------------------|
D|--------------------------6-6----------------------------------|
A|---7-7---7-7---7-7---7-7-------4-4---4-4---4-4---4-4--11-11\---|
E|---------------------------------------------------------------|

G|------------------------------------------------------------------------------|
D|------------------------------------------------------------------------------|
A|---77777777777777777777777777777-/111111--4444444444444444--0000000000000000--|
E|------------------------------------------------------------------------------|

3rd Chorus - (2.18)
G|----------------------------------------------------------|
D|------------------------------------------------9h11------|
A|---7777777777777-/111111-----777777777777-/1111-----------|
E|----------------------------------------------------------|

G|-------------------------------------------|
D|-------------------------------------------|
A|---4444444444444444------------------------|
E|---------------------5555555544455544------|

Bridge - (2.30)
G|---------------------------------------------------------------|
D|--------------------------9-9-------------------------6-6------|
A|---7-7---7-7---7-7\-/7-7-------4-4---4-4---4-4---4-4-----------|
E|---------------------------------------------------------------|

G|----------------------------------8-6666666666666666-----------------------|
D|-----------------------------8-10---------------------77777777\00000000----|
A|---7-7---7-7---7-7---7-7--10-----------------------------------------------|
E|---------------------------------------------------------------------------|


Outro - (2.56)
G|----------------------------------------------------------|
D|------------------------------------------------9h11------|
A|---7777777777777-/111111-----777777777777-/1111-----------|
E|----------------------------------------------------------|

G|----------------------------------------------------------|
D|----------------------------------------------------------|
A|---4444444444444444----0000000000000000-------------------|
E|----------------------------------------------------------|

G|----------------------------------------------------------|
D|------------------------------------------------9h11------|
A|---7777777777777-/111111-----777777777777-/1111-----------|
E|----------------------------------------------------------|

G|-------------------------------------------|
D|-------------------------------------------|
A|---4444444444444444--------------------7-7-|
E|---------------------5555555544455544------|

Key

/ = slide up
\ = slide down
h = hammer-on
11 = eleven not one
Suggest correction
comments
print report bad tab
1 comment total.
0 reply
davidpn 197 wrote on December 27 2008, 08:14 am

Lots wrong with this tab.. C#'s are played at E9, not A4.. especially in the intro as the slide up/down dips below A.

The slides up from E (A7) in the chorus don't stay up.. they slide back down immediately..

Bridge is wrong.. doesn't even end on D.. it ends on A.

guest
You may want to rate the tab now too:
select rating
Wanna post a correction for this tab? Suggest correction