Oops, an error
Loading. Please wait.
We have an official Sex On Fire tab made by UG professional guitarists. Check out the tab »
×
9,957 views 6 this week
5 commentsread comments
1 2 3 4 5
1 last vote to show rating
add to favorites
launch autoscroll
font size
0
reset
guitar tuner
backing track
0:00
0:00
×
Best way to learn
"Sex On Fire"
Autoscroll
slow
fast
+/-
esc
set tempo
stop
Author
----------------------------------------------------------------------------
-----------------------------------Sex_On_Fire------------------------------
----------------------------------------------------------------------------

 There is probably more to this song than what I have but this is still
correct. Listen to the song for timing.

Tuning: Standard

Key: \ = slide down
     / = slide up


[Intro]
 
g|-------------------------------------|
d|-------------------------------------|
a|-------------------------------11-11-|
E|9-\-1-/9-9-------9-9-------9-9-------|
 
g|------------------------------------------------|
d|------------------------------------------------|
a|------------------------------------------11-11-|
E|12-12-------12-12-------12-12-------12-12-------|

g|----------------------------------------|
d|----------------------------------------|
a|----------------------------------11-11-|
E|9-9-------9-9-------9-9-------9-9-------|

[Verse 1]

g|------------------------------------------------|
d|------------------------------------------------|
a|------------------------------------------11-11-|
E|12-12-------12-12-------12-12-------12-12-------|

g|----------------------------------------|
d|----------------------------------------|
a|----------------------------------11-11-|
E|9-9-------9-9-------9-9-------9-9-------|

 |===========4x===========|======4x======|
g|------------------------|--------------|
d|------------------------|--------------|
a|------------------------|--------------|
E|12-12-12-12-12-12-12-12-|9-9-9-9-9-9-9-|

[Chorus 1]

 |=======================2x========================|=======4x=======|
g|------------------------|------------------------|----------------|
d|------------------------|------------------------|----------------|
a|------------------------|------------------11-11-|----------------|
E|12-12-12-12-12-12-12-12-|12-12-12-12-12-12-------|9-9-9-9-9-9-9-9-|

[Verse 2]

g|------------------------------------------------|
d|------------------------------------------------|
a|------------------------------------------11-11-|
E|12-12-------12-12-------12-12-------12-12-------|

g|----------------------------------------|
d|----------------------------------------|
a|----------------------------------11-11-|
E|9-9-------9-9-------9-9-------9-9-------|

 |===========4x===========|======4x======|
g|------------------------|--------------|
d|------------------------|--------------|
a|------------------------|--------------|
E|12-12-12-12-12-12-12-12-|9-9-9-9-9-9-9-|

[chorus 2]

 |=======================2x========================|=======3x=======|
g|------------------------|------------------------|----------------|
d|------------------------|------------------------|----------------|
a|------------------------|------------------11-11-|----------------|
E|12-12-12-12-12-12-12-12-|12-12-12-12-12-12-------|9-9-9-9-9-9-9-9-|

                    |=======================2x========================|
g|------------------|------------------------|------------------------|
d|------------------|------------------------|------------------------|
a|------------11-11-|------------------------|------------------11-11-|
E|9-9-9-9-9-9-------|12-12-12-12-12-12-12-12-|12-12-12-12-12-12-------|

 |=======4x=======|
g|----------------|
d|----------------|
a|----------------|
E|9-9-9-9-9-9-9-9-|

[Verse 3]

g|------------------------------------------------|
d|------------------------------------------------|
a|------------------------------------------11-11-|
E|12-12-------12-12-------12-12-------12-12-------|

g|----------------------------------------|
d|----------------------------------------|
a|----------------------------------11-11-|
E|9-9-------9-9-------9-9-------9-9-------|

 |===========4x===========|======4x======|
g|------------------------|--------------|
d|------------------------|--------------|
a|------------------------|--------------|
E|12-12-12-12-12-12-12-12-|9-9-9-9-9-9-9-|

[chorus 4]

 |=======================2x========================|=======4x=======|
g|------------------------|------------------------|----------------|
d|------------------------|------------------------|----------------|
a|------------------------|------------------11-11-|----------------|
E|12-12-12-12-12-12-12-12-|12-12-12-12-12-12-------|9-9-9-9-9-9-9-9-|

[bridge]

g|----------------------------------------------------|
d|----------------------------------------------------|
a|----------------------------------------------11-11-|
E|12-12-------12-12-------12-12\-3-/------12-12-------|

g|----------------------------------------|
d|----------------------------------------|
a|----------------------------------11-11-|
E|9-9-------9-9-------9-9-------9-9-------|

g|------------------------------------------------|
d|------------------------------------------------|
a|------------------------------------------11-11-|
E|12-12-------12-12-------12-12-------12-12-------|
 
 |=============2x=========|======2x======|
g|------------------------|--------------|
d|------------------------|--------------|
a|------------------------|--------------|
E|12-12-12-12-12-12-12-12-|9-9-9-9-9-9-9-|

[Outro]

 |=======================2x========================|=======4x=======|
g|------------------------|------------------------|----------------|
d|------------------------|------------------------|----------------|
a|------------------------|------------------11-11-|----------------|
E|12-12-12-12-12-12-12-12-|12-12-12-12-12-12-------|9-9-9-9-9-9-9-9-|

 |=======================2x========================|=======4x=======|
g|------------------------|------------------------|----------------|
d|------------------------|------------------------|----------------|
a|------------------------|------------------11-11-|----------------|
E|12-12-12-12-12-12-12-12-|12-12-12-12-12-12-------|9-9-9-9-9-9-9-9-|
Suggest correction
Give kudos to tab author, rate the tab!
1 2 3 4 5
comments
print report bad tab
5 comments total. Showing first comments.
0 reply
stella the fell 10 Dec 30, 2008 05:51 AM

this is so wrong wtf were u thinking

0 reply
Hoi Choi 36 Mar 29, 2009 07:41 PM

this is wronger than gay guy

+1 reply
Joel B. 325 Apr 15, 2009 04:05 PM

I wouldn't say that this is completly wrong. It's like the other tab, just instead playing it on A and D string he's playing it on E and A.
It's not completly right, but 1 Star is not enough.so I gave you 4

guest
You may want to rate the tab now too:
select rating
Wanna post a correction for this tab? Suggest correction