Oops, an error
Loading. Please wait.
We have an official Sex On Fire tab made by UG professional guitarists. Check out the tab »
×
3,783 views 24 this week
no commentswrite comment
1 2 3 4 5
x 4
add to favorites
launch autoscroll
font size
0
reset
guitar tuner
backing track
0:00
0:00
Autoscroll
slow
fast
+/-
esc
set tempo
stop
Author
Difficulty
intermediate
**************************************************
Kings of leon - Sex on fire (live version)
**************************************************

-tabbed by zero83
-Standard Tuning
-PLEASE RATE OR COMMENT! =)
-Also visit my band at: www.youtube.com/user/ZEROSYSTEMband/videos

STROPHE A
 |-----------------------------------|------------------------------------------------|
 |-----------------------------------|------------------------------------------------|
 |-----------------------------------|----------1111-77-77-77-77-1111-------------1111|
 |-------------------------------99\-|-99-99-99-----------------------99-99-99-99-----|  

 |-----------------------------------|
 |-----------------------------------|
 |-77-77-77-77-1111-------------1111-|
 |------------------99-99-99-99------|

 |------------------------------------------------------------------|
 |------------------------------------------------------------------|
 |-77777777777777777777777777777777---------------------------------|
 |---------------------------------99999999999999999999999999999999-|

REFRAIN 1x                                
 |------------------------------------------------|----------------------------------|
 |--------------------------------------------911-|----------------------------------|
 |-777777777777777777777/1111\7777777777777911----|----------------------------------|
 |------------------------------------------------|-99999999999999995555555555555555-|

STROPHE B
 |-----------------------------------|
 |-----------------------------------|
 |-77-77-77-77-1111-------------1111-|
 |------------------99-99-99-99------|

 |------------------------------------------------------------------|
 |------------------------------------------------------------------|
 |-77777777777777777777777777777777---------------------------------|
 |---------------------------------99999999999999995555555555555555-|

REFRAIN 2x

STROPHE C
 |------------------------------------|
 |------------------------------------|
 |-77-77-77-77-1111---------------1111|
 |------------------99-99-799-799-----|

 |-----------------------------------------------------------------|
 |-----------------------------------------------------------------|
 |-7777777777777777777777777777/1111-------------------------------|
 |----------------------------------999999999999999955555555555555-|

REFRAIN 1x

BREAK
 |------------------------------------------------|
 |------------------------------------------------|
 |-77-77-77\/77-1111-------------1111-77-77-77-77-|
 |------------------99-99-99-99-------------------|

 |---------------------------------------------------------------------|
 |----911--11111111111111111111111111111111----------------------------|
 |-911-------------------------------------1212121212121212------------|
 |---------------------------------------------------------9\---9\-----|
                          not sure about those slide-notes_|   _|

REFRAIN 2x

ENDE:
 |---------|
 |---------|
 |-77------|
 |---------|
Suggest correction
comments
print report bad tab
guest
You may want to rate the tab now too:
select rating
Wanna post a correction for this tab? Suggest correction