Oops, an error
Loading. Please wait.

Sex On Fire Bass Tab

version 5
version 5
63,916 views 82 this week
7 commentsread comments
1 2 3 4 5
excellent!
x 35
add to favorites
launch autoscroll
font size
0
reset
guitar tuner
Tab Pro tools
  • play this tab
  • loop segment
  • change instrument
  • show fretboard
  • metronome
×
Best way to learn
"Sex On Fire"
Autoscroll
slow
fast
+/-
esc
set tempo
stop
Contributor
Difficulty
intermediate
----------------------------------------------------------------------------
			     SEX ON FIRE - Kings Of Leon
----------------------------------------------------------------------------

Tabbed By: Sam
e-mail: samlinger2000@yahoo.co.uk

Tuning: Standard

I recently learnt this as my band have started covering it. I noticed none of the tabs I 
were 100% correct, so I thought I'd post this. Please rate this tab as I'm certain this 
100% correct.
I've tried to show the timing as clearly as I could, but just listen to the track and 
figure it out.
Cheers.

G|--------------------------------------------------------|
D|-----------------66----------------66----------------66-|
A|----------44--44----77--77--77--77----44--44--44--44----|
E|-99\4/99------------------------------------------------|

G|-------------------------------------|
D|----------------66----------------66-|
A|-77--77--77--77----44--44--44--44----|
E|-------------------------------------|

G|------------------------------------------------------------------|
D|---------------------------------------------------------------66-|
A|-77777777777777777777777777777777444444444444444444444444444444---|
E|------------------------------------------------------------------|

G|------------------------------46---------------------------------|
D|--------------66------------66-----------------------------------|
A|77777777777777--777777777777----4444444444444444-----------------|
E|------------------------------------------------5555555555555555-|

G|------------------------------------|
D|---------------66----------------66-|
A|77--77--77--77----44--44--44--44----|
E|------------------------------------|

G|------------------------------------------------------------------|
D|-------------------------------66---------------------------------|
A|-777777777777777777777777777777--4444444444444444-----------------|
E|-------------------------------------------------5555555544455544-|

G|------------------------------46---------------------------------|
D|--------------66------------66-----------------------------------|
A|77777777777777--777777777777----4444444444444444-----------------|
E|------------------------------------------------5555555555555555-|

G|------------------------------46---------------------------------|
D|--------------66------------66-----------------------------------|
A|77777777777777--777777777777----4444444444444444-----------------|
E|------------------------------------------------5555555544455544-|

G|------------------------------------|
D|---------------66----------------66-|
A|77--77--77--77----44--44--44--44----|
E|------------------------------------|

G|------------------------------------------------------------------|
D|-------------------------------66---------------------------------|
A|-777777777777777777777777777777--4444444444444444-----------------|
E|-------------------------------------------------5555555555555555-|

G|------------------------------46---------------------------------|
D|--------------66------------66-----------------------------------|
A|77777777777777--777777777777----4444444444444444-----------------|
E|------------------------------------------------5555555544455544-|

G|------------------------------------------------------69-|
D|----------------99----------------66----------------69---|
A|77--77--77\2/77----44--44--44--44----77--77--77--77------|
E|---------------------------------------------------------|

G|6666666666666666-----------------|
D|----------------77777777---------|
A|------------------------00000000-|
E|---------------------------------|

G|------------------------------46---------------------------------|
D|--------------66------------66-----------------------------------|
A|77777777777777--777777777777----4444444444444444-----------------|
E|------------------------------------------------5555555555555555-|

G|------------------------------46-----------------------------------|
D|--------------66------------66-------------------------------------|
A|77777777777777--777777777777----4444444444444444----------------77-|
E|------------------------------------------------5555555544455544---|

| /  slide up
| \  slide down
| h  hammer-on
| p  pull-off
| ~  vibrato
| +  harmonic
| x  Mute note
===============================================================================
comments
print report bad tab
7 comments total. Showing first comments.
+3 reply
acidsump wrote on December 18 2012, 06:26 am

My bass doesn't have 99 frets. Is there a different tuning I can play this in?

+2 reply
arrell wrote on January 30 2013, 03:30 am

Please tell me you're joking... it means play 9 (C#) twice.

0 reply
moffelpiertje wrote on February 3 2013, 11:24 am

thx a lot!!, I'll try to play this song although I just started :D

I want to post or [tab]
guest
You may want to rate the tab now too:
select rating
Please do not post tabs as comments. Select "correction" instead!