Oops, an error
Loading. Please wait.

Sex On Fire Tab

version 6
version 6
332,494 views 258 this week
3 commentsread comments
1 2 3 4 5
x 20
add to favorites
launch autoscroll
font size
0
reset
how to read this tab
guitar tuner
Autoscroll
slow
fast
+/-
esc
set tempo
stop
Help us to improve Ultimate-Guitar.com Take our survey!
×
Author
Difficulty
intermediate
-------------------------------------------------------------------------------
                             SEX ON FIRE - Kings Of Leon
-------------------------------------------------------------------------------
Tabbed by: Alan Ramirez 
Email: pintura7@hotmail.com

Tuning: Standard


[Intro/verse]

e|----------------------------|----------------------------|
B|----------------------------|----------------------------|
G|----------------------------|----------------------------|
D|-----------------------(x4)-|-----------------------(x4)-|
A|---16---14---14---14--------|---12---11---11---11--------|
E|-0----0----0----0----0------|-9----9----9----9----9------|


[Lead]
(bit played over and over in the verse, not sure if it's right)

e|---------------|
B|-------4-------|
G|---------------|
D|-4-6-4---4-7-6-|
A|---------------|
E|---------------|


[Chorus]
(I'm not completely sure the third chord is correct)

e|-----------------|-------------------------|-11-11-11-11-11-11-11-11-|
B|-----------------|-12-12-12-12-12-12-12-12-|-12-12-12-12-12-12-12-12-|
G|-9-9-9-9-9-9-9-9-|-x--x--x--x--x--x--x--x--|-x--x--x--x--x--x--x--x--|
D|-x-x-x-x-x-x-x-x-|-9--9--9--9--9--9--9--9--|-9--9--9--9--9--9--9--9--|
A|-7-7-7-7-7-7-7-7-|-------------------------|-------------------------|
E|-----------------|-------------------------|-------------------------|

e|-----------------|-11----11----11~-11----11----0-|
B|-9-9-9-9-9-9-9-9-|-14b16-14b16-14~-14b16-14b16-9-|
G|-9-9-9-9-9-9-9-9-|-------------------------------|
D|-9-9-9-9-9-9-9-9-|-------------------------------|
A|-----------------|-------------------------------|
E|-----------------|-------------------------------|


[Alternate Chorus]
(played later in the song)

e|----------|-11----11----11~-11----11----0-|
B|----------|-14b16-14b16-14--14b16-14b16-9-|
G|-9-9------|-------------------------------|
D|-9-9-(x5)-|-------------------------------|
A|-7-7------|-------------------------------|
E|----------|-------------------------------|



************************************

| x  Dead note
| b  Bend
| ~  Vibrato 

************************************
Suggest correction
comments
print report bad tab
3 comments total.
0 reply
DomRusky 479 Aug 30, 2012 08:35 PM

awesome tab, what does b mean though?

"14b16"

0 reply
DomRusky 479 Aug 30, 2012 08:45 PM

just been told b stands for bend. I'm so stupid, nevermind! (unsure how to remove first comment.)

0 reply
Not_my_username 188 Jul 10, 2014 04:58 AM

Clearly wrong.

guest
You may want to rate the tab now too:
select rating
Wanna post a correction for this tab? Suggest correction