Oops, an error
Loading. Please wait.

Slow Night So Long Chords

version 1
version 1

Whole song

Interactive

33,891 views 18 this week
6 commentsread comments
1 2 3 4 5
x 5
add to favorites
×
Save as Personal and add changes to this tab that will be seen only by you. Learn more ›
×
You can save this tab as Personal to edit and correct it or add notes. All changes will be seen only by you. Learn more »
save as personal
new!
launch autoscroll
font size
0
reset
transpose
0
reset
simplify chords
display chords
guitar tuner
Autoscroll
slow
fast
+/-
esc
set tempo
stop
Strumming
There is no strumming pattern for this song yet. and get +5 IQ
-------------------------------------------------------------------------
Song:Slow Nights, So Long 
Artist:Kings of Leon
Album:A-Ha Shake Heartbreak
Tabber:Alexthebeatle 
-------------------------------------------------------------------------

 -I've only tabbed the last part of the song, because I think the
 first part was perfect in Deano's tab (the one of the whole album)
 but the last thing isn't right:

 -You just have to play this 3 chords all trough the song:
 
    C9      D7      G
 ---0-------x-------3--------|
 ---3-------1-------0--------|
 ---5-------2-------0--------|
 ---5-------0-------0--------|
 -------------------2--------|
 -------------------3--------|


   C9                      D7
   Rise and shine all you,      gold-digging mothers,
  
       G         
   Are you too good to tango with the poor poor boys?
 
   C9                      D7
   Rise and shine all you,      gold-digging mothers,
  
       G        
   Are you too good to tango with the poor poor boys?
  
   C9                      D7          
   Rise and shine all you,      gold-digging mothers,
   
       G      
   Are you too good to tango with the poor poor boys?
  
   C9                      D7                          G
   Rise and shine all you,      gold-digging mother-er-ers.


 -OUTRO TAB:
 
   C9         D7        G       C9         D7          G
 ----------------------------|---------------------0-2-3---|
 --3--3-3-5-0-3--3-3-1-0-0---|--3--3-3-5-0-3--3-3----------|
 ----------------------------|-----------------------------|
 ----------------------------|-----------------------------|
 ----------------------------|-----------------------------|
 ----------------------------|-----------------------------|
Suggest correction
comments
print report bad tab
6 comments total. Showing first comments.
0 reply
WellWellMrBond 103 Feb 02, 2006 01:26 PM

The only chord that was correct was C9. The D7 and G don't fit at all if you play along with the song.

0 reply
SpidersofZen 10 Feb 13, 2006 04:44 PM

I was going to say the same - the first chord is right, the second chord is an open D string, 5th fret on the G string and 3rd fret on the b string and the last chord is 5th fret on the A and D strings and open g and b strings.
Ill try and TAB it below:

e---x-------x-------x-------x
b---3-------3-------0-------0
g---5-------5-------4-------0
d---5-------0-------5-------5
a---0-------x-------5-------5

0 reply
SpidersofZen 10 Feb 13, 2006 04:55 PM

please email me at et2421@hotmail.com if you want my version of the tabs - ill try and get permission to post them

guest
You may want to rate the tab now too:
select rating
Wanna post a correction for this tab? Suggest correction