Oops, an error
Loading. Please wait.

Slow Night So Long bass

version 2
version 2

Whole song

Interactive

6,309 views 9 this week
no commentswrite comment
1 2 3 4 5
x 3
add to favorites
×
Save as Personal and add changes to this tab that will be seen only by you. Learn more ›
×
You can save this tab as Personal to edit and correct it or add notes. All changes will be seen only by you. Learn more »
launch autoscroll
font size
0
reset
guitar tuner
edit
Autoscroll
slow
fast
+/-
esc
set tempo
stop
Author
Difficulty
----------------------------------------------------------------------------
			     Slow Night, So Long - Kings Of Leon
----------------------------------------------------------------------------

Tabbed By : BlocPartyFreak
e-mail: madfender@gmail.com

Tuning: Standard



INTRO/VERSE x5

00:15 - 01:20

G|--9-9-9-9---9-9-9-9-----14-14-14-14-14-14-14-14-11----------| []
D|----------7---------7--------------------------------11-9-7-| []
A|------------------------------------------------------------| []
E|------------------------------------------------------------| []
                                                                []   X5
G|--6/7--7-7-7-7----7-7-7-7----6/7--7-7-7-7----7-7-7-7--------| []
D|---------------4----------4---------------4----------4------| []   
A|------------------------------------------------------------| []
E|------------------------------------------------------------| []


CHORUS x2

01:20 - 01:46                

G|----------------------------------------|                            []
D|----------------------------------------|                            []
A|----------------------------------------|                            []
E|--5--5--5--5--5--5--5--5--5-5-5-5-------|                            [] 
                                                                       []
01:26                                                                  []x2 
G|--------------------------------------------------------------------|[]
D|-----4---------4------4---------4------4---------4------4---------4-|[]
A|-5-5---5-5-5-5----5-5---5-5-5-5----5-5---5-5-5-5----5-5---5-5-5-5---|[]
E|--------------------------------------------------------------------|[]
  ^ Quick           

01:46 - 02:12

VERSE

G|--9-9-9-9---9-9-9-9-----14-14-14-14-14-14-14-14-11----------| []
D|----------7---------7--------------------------------11-9-7-| []
A|------------------------------------------------------------| []
E|------------------------------------------------------------| []
                                                                []   X2
G|--6/7--7-7-7-7----7-7-7-7----6/7--7-7-7-7----7-7-7-7--------| []
D|---------------4----------4---------------4----------4------| []   
A|------------------------------------------------------------| []
E|------------------------------------------------------------| []


CHORUS 2

02:12 - 02:38
G|----------------------------------------|                            
D|----------------------------------------|                            
A|----------------------------------------|                            
E|--5--5--5--5--5--5--5--5--5-5-5-5-------|                             
                                                                   
G|--------------------------------------------------------------------|
D|-----4---------4------4---------4------4---------4------4---------4-|
A|-5-5---5-5-5-5----5-5---5-5-5-5----5-5---5-5-5-5----5-5---5-5-5-5---|
E|--------------------------------------------------------------------|

G|----------------------------------------|                            
D|----------------------------------------|                            
A|----------------------------------------|                            
E|--5--5--5--5--5--5--5--5--5-5-5-5-------|

Slight change... 02:31 - 02:38
G|-----------------------------------------------------------------------|
D|-----4----------------4----------------4----------------4---------4----|
A|-5-5---5-5-5-5-3--5-5---5-5-5-5-3--5-5---5-5-5-5-3--5-5---5-5-5-5---5~~|
E|-----------------------------------------------------------------------|
  ^Quick


End part of song.

03:00 - 03:52
G|------------------------------|
D|----------555---555-----------|
A|------5-5---------------------|  x7  
E|--5-5-------------------------|

End on
G|--------------------------------|
D|------------5~~~~~~~~-----------|
A|--------5-5---------------------|
E|----5-5-------------------------|

Lyrics

Slow night so long, she's frenching out the flavour,
She's 17 but i done went and plum forgot it

No tears are gone they're pooling on the table,
no tears are gone they're leaving their mark behind

So far so good she's absolutely wasted,
she's handing up and changing her story around

I just don't know where leading ladies come from,
I just don't know where they can be found.

She's opened up just like she really knows me,
I hate her face, but enjoy the company

I'll take you home, or back to Oklahoma
You're not so nice, but the sex sells so cheap

Rise and shine all you gold-diggin' mothers,
Are you too good to tango with the poor, poor boys




Comments and corrections welcome,
BlocPartyFreak.


            
            
Suggest correction
Creating personal tab
Creating personal tab
You can edit any tab online and save it as your Personal.

You can edit, replace or remove any tab part or add personal notes – all changes will be seen only by you.

Personal tabs can be accessed anytime from any device, even offline.
Learn more »
Give kudos to tab author, rate the tab!
1 2 3 4 5
comments
print report bad tab
guest
You may want to rate the tab now too:
select rating
Wanna post a correction for this tab? Suggest correction