Oops, an error
Loading. Please wait.

Supersoaker Bass Tab

version 1
version 1

Interactive

6,713 views 9 this week
no commentswrite comment
1 2 3 4 5
x 4
add to favorites
launch autoscroll
font size
0
reset
guitar tuner
Autoscroll
slow
fast
+/-
esc
set tempo
stop
Help us to improve Ultimate-Guitar.com Take our survey!
×
Author
Difficulty
novice
Band: Kings Of Leon
Song: Supersoaker
Album: Mechanical Bull (2013)
Bassist: Michael Jared Followill
Tuning: Standard

Intro:

  +   +   +   +    +   +   +   +    +   +   +   +    +   +   +   +  
G|----------------|----------------|----------------|----------------|
D|----------------|----------------|----------------|----------------|
A|----------------|----------------|----------------|------------0-/-|
E|----------------|----------------|----------------|----------------|

G|----7---------7-|----------------|----7---------7-|--6-------------|
D|------------7---|----------------|------------7---|------7---6-----|
A|5---------5-----|----------------|5---------5-----|----------------|
E|----------------|----------------|----------------|----------------|

Verse part:

  +   +   +   +    +   +   +   +    +   +   +   +    +   +   +   +  
G|----------------|----------------|----------------|----------------|  |
D|----7---------7-|----------------|----7---------7-|--6-------------|  |
A|------------7---|----------------|------------7---|------7---4-----|  |
E|5---------5-----|----------------|5---------5-----|----------------|  |
                                                                        |x3
G|----7---------7-|----------------|----7---------7-|--6-------------|  |
D|------------7---|----------------|------------7---|------7---6-----|  |
A|5---------5-----|----------------|5---------5-----|----------------|  |
E|----------------|----------------|----------------|----------------|  |

Pre-chorus:

  +   +   +   +    +   +   +   +    +   +   +   +    +   +   +   +  
G|----------------|----------------|----------------|----------------|
D|--------------7-|----------------|--------------7-|--6-------------|
A|----------------|----------------|----------------|------7---4-----|
E|5---5-0-5-5-0---|----5-0-5-0-5-4-|5---5-0-5-5-0---|----------------|

G|--------------7-|----------------|--------------7-|--6-------------|
D|----------------|----------------|----------------|------7---6-----|
A|5---5---5-5-0---|----5---5---5-4-|5---5---5-5-0---|----------------|
E|----------------|----------------|----------------|----------------|

  +   +   +   +    +   +   +   +    +   +   +   +    +   +   +   +  
G|----------------|----------------|----------------|----------------|
D|----------------|----------------|----------------|----------------|
A|----------------|----------------|----------------|----------------|
E|4~--------------|----------------|4~--------------|------------2-/-|

Chorus:

  +   +   +   +    +   +   +   +    +   +   +   +    +   +   +   +  
G|----------------|----------------|----------------|----------------|
D|----------------|----------------|----------------|----------------|
A|----------------|----------------|4-4-4-4-4-4-4-4-|4-4-4-4-4-4-4-4-|
E|5-5-5-5-5-5-5-5-|5-5-5-5-5-5-5-5-|----------------|----------------|

G|----------------|----------------|----------------|----------------|
D|----------------|----------------|----------------|----------------|
A|2-2-2-2-2-2-2-2-|2-2-2-2-2-2-2-2/|7-7-7-7-7-7-7-7-|9-9-9-7-7-7-----|
E|----------------|----------------|----------------|------------9-9-|


Play Verse (x1)

Play Pre-chorus (x1)

Chorus (play it twice, there are two different endings):

  +   +   +   +    +   +   +   +    +   +   +   +    +   +   +   +  
G|----------------|----------------|----------------|----------------|
D|----------------|----------------|----------------|----------------|
A|----------------|----------------|4-4-4-4-4-4-4-4-|4-4-4-4-4-4-4-4-|
E|5-5-5-5-5-5-5-5-|5-5-5-5-5-5-5-5-|----------------|----------------|
                                                     1st time
G|----------------|----------------|----------------|----------------|
D|----------------|----------------|----------------|----------------|
A|2-2-2-2-2-2-2-2-|2-2-2-2-2-2-2-2/|7-7-7-7-7-7-7-7-|7-7-7-7-7-7-7-7-|
E|----------------|----------------|----------------|----------------|
                                                     2nd time
                                                    |----------------|
                                                    |----------------|
                                                    |9-9-9-7-7-7-----|
                                                    |------------9-9-|

Interlude:

  +   +   +   +    +   +   +   +    +   +   +   +    +   +   +   +  
G|----------------|----------------|--------------6-|--4-------------|  |
D|--------------7-|----------------|------------6---|------7---6-----|  |
A|------------7---|----------------|4---------4-----|----------------|  |
E|5---------5-----|----------------|----------------|----------------|  |
                                                                        |x2
G|--------------4-|----------------|--------------9-|--7---6---------|  |
D|------------4---|----------------|------------9---|----------7/9\--|  |
A|2---------2-----|------------2-/-|7---------7-----|----------------|  |
E|----------------|----------------|----------------|----------------|  |

Chorus:

  +   +   +   +    +   +   +   +    +   +   +   +    +   +   +   +  
G|----------------|----------------|----------------|----------------|
D|----------------|----------------|----------------|----------------|
A|----------------|------------2-2-|4-4-4-4-4-4-4-4-|4-4-4-4-4-4-5-5-|
E|5-5-5-5-5-5-5-5-|5-5-5-5-5-5-----|----------------|----------------|
                                                     1st time
G|----------------|----------------|----------------|----------------|
D|----------------|----------------|----------------|----------------|
A|2-2-2-2-2-2-2-2-|2-2-2-2-2-2-4-4/|7-7-7-7-7-7-7-7-|9-9-9-7-7-7-----|
E|----------------|----------------|----------------|------------9-9-|
                                                     2nd time
                                                    |----------------|
                                                    |----------------|
                                                    |9-9-9-7-7-7-9-9-|
                                                    |----------------|
                                                     3rd time
                                                    |----------------|
                                                    |----------------|
                                                    |9-9-9-7-7-7-----|
                                                    |------------9-9-|

  +   +   +   +    +   +   +   +    +   +   +   +    +   +   +   +  
G|----------------|----------------|----------------|----------------|
D|----------------|----------------|----------------|----------------|
A|----------------|----------------|----------------|----------------|
E|5~--------------|----------------|----------------|----------------|


/  slide up
\  slide down
h  hammer-on
p  pull-off
~  let ring
Suggest correction
comments
print report bad tab
guest
You may want to rate the tab now too:
select rating
Wanna post a correction for this tab? Suggest correction