Oops, an error
Loading. Please wait.

Supersoaker Tab

version 1
version 1

Whole song

Interactive

Video

83,535 views 330 this week
no commentswrite comment
1 2 3 4 5
excellent!
x 49
add to favorites
launch autoscroll
font size
0
reset
how to read this tab
guitar tuner
Tab Pro tools
  • play this tab
  • loop segment
  • change instrument
  • show fretboard
  • metronome
×
Best way to learn
"Supersoaker"
Autoscroll
slow
fast
+/-
esc
set tempo
stop
Contributor
Difficulty
intermediate
-----------------------------
 Supersoaker ~ Kings Of Leon
-----------------------------

Tabbed By: Russcool
(I know, pretty lame name)

Tuning: E Standard

Key: A



INTRO

  Guitar 1   (You can figure out the strumming pattern)
E|-----------------------------------|
B|---7---5---7---5--12--10--12--10---|
G|---6---6---6---6--11--11--11--11---|
D|---7---7---7---7--12--12--12--12---|
A|---0---0---0---0---0---0---0---0---|
E|-----------------------------------|

  Guitar 2
E|-----------------------------------|-----------------------------------|
B|-----------------------------------|-----------------------------------|
G|--11-------9------11---9-----------|-----------------------------------|
D|------11------------------12--11---|--11------11------11---9-------9---|
A|-----------------------------------|------12------------------12-------|
E|-----------------------------------|-----------------------------------|

E|-----------------------------------|-----------------------------------|
B|-----------------------------------|-----------------------------------|
G|-----------------------------------|-----------------------------------|
D|----------11--11-------------------|-----------9-----------------------|
A|---9-------------------------------|------------------12---------------|
E|-----------------------------------|-----------------------------------|

E|-----------------------------------|-----------------------------------|
B|-----------------------------------|-----------------------------------|
G|-----------------------------------|-----------------------------------|
D|----------11--11---------------9---|---9------12--12-------------------|
A|-----------------------------------|------------------------------12---|
E|--12-------------------------------|-----------------------------------|



VERSE

(Guitar 1 plays the same chords as the Intro)

  Guitar 2   (Let Ring)
E|-----------------------------------|-----------------------------------|
B|-----------7-------------------5---|---------------5-------------------|
G|-------6-------------------6-------|-------6---------------6-------6---|
D|---7-------------------7-----------|-----------7---------------7-------|   x2
A|-----------------------------------|-----------------------------------|
E|-----------------------------------|-----------------------------------|

E|-----------------------------------|-----------------------------------|
B|----------12------------------10---|--------------10-------------------|
G|------11------------------11-------|------11--------------11------11---|
D|--12------------------12-----------|----------12--------------12-------|   x2
A|-----------------------------------|-----------------------------------|
E|-----------------------------------|-----------------------------------|



PRE-CHORUS

  Guitars 1 & 2
E|---4---|---4---|
B|---5---|---5---|
G|---6---|---6---|
D|---6---|---6---|
A|---4---|---4---|
E|---4---|---4---|



CHORUS
(Same as Intro)

VERSE
(Same as first Verse)

PRE-CHORUS
(Same as first Pre-Chorus)

CHORUS
(Same as first Chorus except this time you play it twice)



INTERLUDE

E|---------------0---|
B|---7---5---3---0---|
G|---6---6---4---1---|
D|---7---6---4---2---|
A|---0---4---2---2---|
E|-------------------|



BRIDGE

  Guitars 1 & 2   (You can figure out the strumming pattern)
E|-------------------------------9---|
B|---7---5---7---5--12--10--12--10---|
G|---6---6---6---6--11--11--11--11---|
D|---7---7---7---7--12--12--12--12---|
A|---0---0---0---0---0---0---0---0---|
E|-----------------------------------|



INTERLUDE

  Guitar 1   (You can figure out the strumming pattern)
E|-----------------------------------|
B|---7---5---7---5--12--10--12--10---|
G|---6---6---6---6--11--11--11--11---|
D|---7---7---7---7--12--12--12--12---|
A|---0---0---0---0---0---0---0---0---|
E|-----------------------------------|


  Guitar 2   (You can figure out the strumming pattern)
E|---5---5---5---5---5---5---5---5---|
B|---5---5---5---5---5---5---5---5---|
G|-----------------------------------|
D|-----------------------------------|
A|-----------------------------------|
E|-----------------------------------|



OUTRO-CHORUS
(Same as second Chorus)

End on:

  Guitar 1
E|-------|
B|---7---|
G|---6---|
D|---7---|
A|---0---|
E|-------|

  Guitar 2
E|-------|
B|--14---|
G|--14---|
D|--14---|
A|--12---|
E|-------|
comments
print report bad tab
I want to post or [tab]
guest
You may want to rate the tab now too:
select rating
Please do not post tabs as comments. Select "correction" instead!