Oops, an error
Loading. Please wait.

Supersoaker bass

version 3
version 3

Whole song

Interactive

14,774 views 1 this week
no commentswrite comment
1 2 3 4 5
x 5
add to favorites
×
Save as Personal and add changes to this tab that will be seen only by you. Learn more ›
×
You can save this tab as Personal to edit and correct it or add notes. All changes will be seen only by you. Learn more »
launch autoscroll
font size
0
reset
guitar tuner
edit
Autoscroll
slow
fast
+/-
esc
set tempo
stop
Author
Difficulty
-------------------------------------------------------------------------------
                              SUPER SOAKER - Kings of Leon
-------------------------------------------------------------------------------
Tabbed by: dmitriy1224                                                      
Please check out my YouTube channel: youtube.com/dmitriy1224

This is my first tab, so its not great. But its better than nothing, gotta start somewhere.
Rating and constructive criticism is welcome.
Hope you like it.

My bass cover of this song: http://www.youtube.com/watch?v=LCgTQqWd_WM

Tuning: Standard

Intro

G|---------------------------------------------------------------------------|
D|------------------12------------12--11-------------------------------------|
A|---------------12------------12--------12--11\-----------------------------|
E|--5/10--10--10--------10--10-----------------------------------------------|

Verse - Part 1

G|---------------------------------------------------------------------------|
D|---------7---------7--6-----------------12-----------12--11----------------|
A|-------7---------7------7--4/---------12-----------12--------12--11\-------|
E|--5--5-----5---5----------------10--10-------10--10------------------------|

Verse - Part 2 (this is not the exact amount of times you have to strum)

G|---------------------------------------------------------------------------|
D|---------------------7--------------------------------------7--6-----------|
A|------------------7--------------------------------------7--------7---4/---|
E|---5--5--5--5--5--------5--5--5--5--5--3--5--5--5--5--5--------------------|

G|---------------------------------------------------------------------------|
D|--------------------12--------------------------------------12--11---------|
A|-----------------12--------------------------------------12--------12--11\-|
E|--10-10-10-10-10-------10-10-10-10-10--8--10-10-10-10-10-------------------|

Pre Chorus

G|---------|      G|---------|
D|---------|      D|---------|
A|---4-----|  OR  A|---------|  Im not sure what Jared plays.
E|---------|      E|---4-----|

Chorus

G|---------------------------------------------------------------------------|
D|---------------------------------------------------------------------------|
A|---------------------------------------------------------------------------|
E|--5(x14)--(7)(7)--9(x14)--(10)(10)--7(x14)--(9)(9)--12(x8)-----------------|

G|---------------------------------------------------------------------------|
D|---------------------------------------------------------------------------|
A|---------------------------------------------------------------------------|
E|--(14-14-14)--(12-12-12)--(10-10)------------------------------------------|

Bridge

G|------------------6--4--2--1---------4--------------9--7--6----------------|
D|--------7-------6------------------4--------------9----------7/9\7---------|
A|-------7---4--4---------------2--2------2/7--7--7--------------------------|
E|--5--5---------------------------------------------------------------------|

End song on A

G|---------|      G|---------|
D|---------|      D|---------|
A|---------|  OR  A|---12----|  
E|---5-----|      E|---------|


| /  slide up
| \  slide down
| h  hammer-on
| p  pull-off
| ~  vibrato
| +  harmonic
| x  Mute note
===============================================================================

            
            
Suggest correction
Creating personal tab
Creating personal tab
You can edit any tab online and save it as your Personal.

You can edit, replace or remove any tab part or add personal notes – all changes will be seen only by you.

Personal tabs can be accessed anytime from any device, even offline.
Learn more »
comments
print report bad tab
guest
You may want to rate the tab now too:
select rating
Wanna post a correction for this tab? Suggest correction